Home » M » Mirah »

Mirah - Advisory Committee Tabs

Artists:  A B C D E F G H I J K L M N O P Q R S T U V W X Y Z # 

Advisory Committee Tabs

(ver. 1) Click to play this song!
Mirah

Intro and between verses:

e---------------------------------|
B---------------------------------|
G---------------------------------|
D-2-2-2-2-2-2-2-2-2-2-2-2-2-2-2-2-|
A-----------------2---4---0---2---|
E-0---2---4---0-------------------|


Verse:

e---------------------------------|
B---------------------------------|
G-----2-2-------------------------|
D-0-0---------0-0-----2-2-----2-2-|
A---------3-3-----0-0-------------|
E-------------------------0-0-----|


Chorus:

     G#     F#      E


____________________________________________________________
            
Submit corrections

↑ Back to top | Tablatures and chords for acoustic guitar and electric guitar, ukulele, drums are parodies/interpretations of the original songs. You may use it for private study, scholarship, research or language learning purposes only