» » »

Minus The Bear - Thanks For The Killer Game Of Crisco Twister Tabs

Artists:  A B C D E F G H I J K L M N O P Q R S T U V W X Y Z # 

Thanks For The Killer Game Of Crisco Twister Tabs

(ver. 2) Click to play this song!
Minus The Bear
 Rating:
4/5 (4 votes)

 Thanks For The Killer Game Of Crisco Twister lessons Tabs too difficult? Try these video lessons and learn fast
 
                this isn't the whole song, just part of the end.  I love this song but don't know the 
thing about tabbing so this is just to get started.

E|--------------------------------------|
B|--------------------------------------|   x3
G|---5---5-----5-h7-5---5---------------|
D|---5---5------------7---7-5-5-7-0-----|
A|---3---3---0--------------------------|
E|--------------------------------------|

E|-----------------------------------------------|
B|-----------------------------------------------|
G|---5---5-----5-h7-5---5-7-7-9-9-12-12-14-------|
D|---5---5------------7--------------------------|
A|---3---3---0-----------------------------------|
E|-----------------------------------------------|
            
Submit corrections


        Thanks For The Killer Game Of Crisco Twister lessons Hard to play? Try these video lessons and learn fast Thanks For The Killer Game Of Crisco Twister lessons
        
↑ Back to top | Tablatures and chords for acoustic guitar and electric guitar, ukulele, drums are parodies/interpretations of the original songs. You may use it for private study, scholarship, research or language learning purposes only