» » »

Minus The Bear - We Are Not A Football Team Tabs

Artists:  A B C D E F G H I J K L M N O P Q R S T U V W X Y Z # 

We Are Not A Football Team Tabs

(ver. 1) Click to play this song!
Minus The Bear
 Rating:
4/5 (4 votes)

 We Are Not A Football Team lessons Tabs too difficult? Try these video lessons and learn fast
 
                Band : Minus The Bear
Song : We Are Not a Football Team
Drop D

x   - Palm Mute
b   - Bend
b~  - Bend Up Then Down
h   - Hammer-On Directly After Note Before
*   - Harmonics
/   - Slide Up
\   - Slide Down

Intro Guitar 1 (reverb):
e|-----------------------------|
B|-7--------7*--h15p12h15------|
G|-7--7/9p0---------------h12--|
D|-----------------------------|
A|-----------------------------|
d|-----------------------------|

Intro Guitar 2:
e|--------------------|
B|-7----------7-------|
G|-7--7/9/7---7---7---|
D|-0------------9-----|
A|--------------------|
d|--------------------|

Chorus Guitar 1 (reverb):
e|------------------------------------------|
B|-h7h10p--h12p8--h12h15--15p12--h15p0h15---|
G|------------------------------------------|
D|------------------------------------------|
A|------------------------------------------|
d|------------------------------------------|

Bridge Guitar 1 (reverb):
e|------------------------5-5----0------------|----12---12---12---12-|
B|-----10-10-7-7-0\-----------5-5-------------|----10---10---10---10-|
G|---------------7\---------------------------|----------------------|
D|--------------------------------------------|-0-0--0-0--0-0--0-0---|
A|--------------------------------------------|----------------------|
d|-9-9----------------5-5---------------------|----------------------|

Bridge Guitar 2:
e|--------------------------------------------|----------------------|
B|--------------------------------------------|----7--------7--------|
G|----------------------------------7-7-------|---------7---------7--|
D|-------------9--9--12-12--5-5-5-5-5-5-7-7---|-7-7--7-7--7-7--7-7---|
A|-9--9--12-12-9--9--9--9---5-5-5-5-5-5-5-5---|-5-5--5-5--5-5--5-5---|
d|-9--9--9--9--9--9--9--9---5-5-5-5-5-5-5-5---|----------------------|
            
Submit corrections


        We Are Not A Football Team lessons Hard to play? Try these video lessons and learn fast We Are Not A Football Team lessons
        
↑ Back to top | Tablatures and chords for acoustic guitar and electric guitar, ukulele, drums are parodies/interpretations of the original songs. You may use it for private study, scholarship, research or language learning purposes only