» » »

Minus The Bear - Pig War Tabs

Artists:  A B C D E F G H I J K L M N O P Q R S T U V W X Y Z # 

Pig War Tabs

(ver. 1) Click to play this song!
Minus The Bear
 Rating:
3.3/5 (6 votes)

 Pig War lessons Tabs too difficult? Try these video lessons and learn fast
 
                                         INTRO/VERSE/Riff 1
E|-------------------------------------------------------------------------|
B|o------------------------------------------------------------------------|
G|-8-6-8-9~8-6~-9-11~9-8~-6-13~-11-9~-11-6~--------------------------------|
D|-------------------------------------------------------------------------|
A|o------------------------------------------------------------------------|
E|-------------------------------------------------------------------------|

VERSE  NOTE:This is played under Riff 1, you dont have to play this, and I
wouldn't because it is done with a delay pedal and also you cant play 2 riffs
at one time without a loop station, but if you have one, be my guest. Also if
you dont have a delay pedal you can still play this, but it wont sound the same.
E|-4-4-4-------4-4-4-------4-4-4-------4-4-4-4-----------------------------|
B|-4-4-4--7/9--4-4-4--7/9--4-4-4--7/9--4-4-4-4-----------------------------|
G|-6-6-6-------6-6-6-------6-6-6-------6-6-6-6-----------------------------|
D|-6-6-6--4/6--6-6-6--4/6--6-6-6--4/6--6-6-6-6--4444444-66666666-----------|
A|-------------------------------------------------------------------------|
E|-------------------------------------------------------------------------|

               CHORUS/Riff 2
E|-4-4---4-4-44444--4-4---4-4-44444----------------------------------------|
B|-4-4---4-4--------4-4---4-4--------7-7--7-7-77777------------------------|
G|-6-6---6-6--------6-6---6-6----------------------------------------------|
D|-6-6---6-6--------6-6---6-6--------4-4--4-4-44444-4444444-666666666------|
A|-------------------------------------------------------------------------|
E|-------------------------------------------------------------------------|

                          SOLO
E|-------------------------------------------------------------------------|
B|-------------------------------------------------------------------------|
G|-6/8888888-6/8888888-------------------6/888888-6/88888888---------------|
D|---------------------4444444/66666666----------------------4444444/666666|
A|-------------------------------------------------------------------------|
E|-------------------------------------------------------------------------|


E|----------11-9-7----------------------------------------------------11---|
B|-----------------9b11111111111111r9---------------------------14b16------|
G|-6/888888---------------------------------------------6/88888------------|
D|------------------------------------4444444-66666666---------------------|
A|-------------------------------------------------------------------------|
E|-------------------------------------------------------------------------|


E|-------------------------------------------------------------------------|
B|14b1616161616161616161616------------------------------------------------|
G|-------------------------------------------------------------------------|
D|-------------------------------------------------------------------------|
A|-------------------------------------------------------------------------|
E|-------------------------------------------------------------------------|
            
Submit corrections


        Pig War lessons Hard to play? Try these video lessons and learn fast Pig War lessons
        
↑ Back to top | Tablatures and chords for acoustic guitar and electric guitar, ukulele, drums are parodies/interpretations of the original songs. You may use it for private study, scholarship, research or language learning purposes only