» » »

Minus The Bear - Ice Monster Tabs

Artists:  A B C D E F G H I J K L M N O P Q R S T U V W X Y Z # 

Ice Monster Tabs

(ver. 1) Click to play this song!
Minus The Bear
 Rating:
4/5 (10 votes)

 Ice Monster lessons Tabs too difficult? Try these video lessons and learn fast
 
                
Standard tuning.

Im pretty sure I got everything, My first tab. A great, creative song by
Minus the bear from the album Planet of Ice.

----------------------------------------14------------------------|
--------10-----------10---------------14--14----10-12-12/14-12----|
-----11----11-----11----11---------11---------11------------------| x 2
----9--------9---9--------9--11-12-----------9--------------------|
--10-----------10-------------------------------------------------|
------------------------------------------------------------------|
Intro    Guitar 2

------------------------------------------------|
---------------------------7--------------------|
-----2--------2-----------6-6----2-4-4/6-4------|
---4---4----4---4-------4-------4---------------| x 2
--2-----2--2-----2--4-5--------2----------------|
-3--------3-------------------------------------|
Intro    Guitar 1


-----------------------------------------------|
-----------------------------------------------|
----10-10-----10-10------------14------10-12---|
----11-11-----11-11---------11---------11-11---| x 6
-9---------9----------11-12---------9----------|
-----------------------------------------------|
Verse 1 - "You've Come to this, you were once a lion." Guitar 2
-----------------------------------------------|
---------------------------7-------------------|
-----2--------2-----------6-6----2-4-4/6-4-----|
---4---4----4---4-------4-------4--------------| x 6
--2-----2--2-----2--4-5--------2---------------|
-3--------3------------------------------------|
Verse 1 - "You've Come to this, you were once a lion." Guitar 1

----------------------|
----------------------|
--4-2-----------------|
------4---------------|
--------2-------------|
----------0-----------|
Interlude, bridge thing.

-2-2----2-2----------------|
-3-3----1-1----0-0---0-0---|
-4-4----2-2----0-0---0-0---|
-4-4----0-0----0-0---2-2---| x 3
-2-2-----------2-2---2-2---|
---------------3-3---0-0---|
Chorus - For both guitars


-2-2--2-2--2-2-----------------|
-3-3--3-3--3-3-----------------|
-4-4--4-4--4-4---4-2-----------|
-4-4--4-4--4-4-------4---------|
-2-2--2-2--2-2---------2-------|
-------------------------0-----|
Chorus ending

--------------------------------------------------------------|
--------------------------------------------------------------|
-9/11~------------------7-------------------------------------|
---------7~-7~------7/9---9-----------------------------------|
--------------------------------------------------------------|
--------------------------------------------------------------|
Bridge. Guitar 1

--------------------------------------------------------------------------|
--12-12-12-----12-12-12----12/14/12--10-----------------------------------|
--------------------------------------------------------------------------|
--------------------------------------------------------------------------|
--------------------------------------------------------------------------|
--------------------------------------------------------------------------|
Bridge Guitar 2

----------------------------------------14------------------------|
--------10-----------10---------------14--14----10-12-14-12-------|
-----11----11-----11----11---------11---------11------------------|
----9--------9---9--------9--11-12-----------9--------------------|
--10-----------10-------------------------------------------------|
------------------------------------------------------------------|

----------------------------------------14------------------------|
--------10-----------10---------------14--14----10-12-14-12//-----|
-----11----11-----11----11---------11---------11------------------|
----9--------9---9--------9--11-12-----------9--------------------|
--10-----------10-------------------------------------------------|
------------------------------------------------------------------|

---------------------------7--------------------|
-----2--------2-----------6-6----2-4-4/6-4------|
---4---4----4---4-------4-------4---------------| x2
--2-----2--2-----2--4-5--------2----------------|
-3--------3-------------------------------------|
Verse 2 guitar 1

--------------------------------------------------------------------------|
--------------------------------------------------------------------------|
-----------------12/14---14/16-------7p6----------------------------------|
------12-9h12/14------16------16---------7h9------------------------------|
--10----------------------------------------------------------------------|
--------------------------------------------------------------------------|

--------------------------------------------------------------------------|
-------------------------------------12/15--------------------------------|
-----------------12/14---14/16-------------14/16--------------------------|
------12-9h12/14------16------16------------------------------------------|
--10----------------------------------------------------------------------|
--------------------------------------------------------------------------|


--------------------------------------------------------------------------|
--------------------------------------------------------------------------|
-----------------12/14---14/16-------7p6-------7p6------------------------|
------12-9h12/14------16------16---------7h9-------9----------------------|
--10----------------------------------------------------------------------|
--------------------------------------------------------------------------|

--------------------------------------------------------------------------|
-------------------------------------12/15--------------------------------|
-----------------12/14---14/16-------------14/16--------------------------|
------12-9h12/14------16------16------------------------------------------|
--10----------------------------------------------------------------------|
--------------------------------------------------------------------------|
Verse 2 Guitar 2


----------------------|
----------------------|
--4-2-----------------|
------4---------------|
--------2-------------|
----------0-----------|
Interlude, bridge thing again.


-2-2----2-2----------------|
-3-3----1-1----0-0---0-0---|
-4-4----2-2----0-0---0-0---|
-4-4----0-0----0-0---2-2---| x 4
-2-2-----------2-2---2-2---|
---------------3-3---0-0---|
Chorus number 2 For both guitars

-2-2----2-2----------------|
-3-3----1-1----0-0---0-0---|
-4-4----2-2----0-0---0-0---|
-4-4----0-0----0-0---2-2---| x 3
-2-2-----------2-2---2-2---|
---------------3-3---0-0---|
Chorus Number 3 For both guitars

--------------2-2-|
--0-0---0-0---3-3-|
--0-0---0-0---4-4-|
--0-0---2-2---4-4-|
--2-2---2-2---2-2-|
--3-3---0-0-------|
"Just leave her out, of this."


------------------------------------|
-/12-12~--/14 14~--/15-15~-/12-12~--|
------------------------------------|
------------------------------------|
------------------------------------|
------------------------------------|
Ending
            
Submit corrections


        Ice Monster lessons Hard to play? Try these video lessons and learn fast Ice Monster lessons
        
↑ Back to top | Tablatures and chords for acoustic guitar and electric guitar, ukulele, drums are parodies/interpretations of the original songs. You may use it for private study, scholarship, research or language learning purposes only