» » »

Minus The Bear - Hey, Wanna Throw Up? Tabs

Artists:  A B C D E F G H I J K L M N O P Q R S T U V W X Y Z # 

Hey, Wanna Throw Up? Tabs

(ver. 2) Click to play this song!
Minus The Bear
 Rating:
4/5 (4 votes)

 Hey, Wanna Throw Up? lessons Tabs too difficult? Try these video lessons and learn fast
 
                Intro
|---------------------------------|
|---------------------------------|
|---------------------------------|
|-5-------5-------5---4b5r4--0----|
|-5-------5-------5----------5----|
|-5-------5-------5----------0----| Repeat once

Verse 1(This part is hard)
|--------------------------------------------------------------|
|--------------------------------------------------------------|
|--------------------------------------------------------------|
|t12h5------------t12h5----------t12h5------------t12h5--------|
|-----t12h5--------------t16h9--------t12h5--------------t16h9-|
|----------t12h5---------------------------t12h5---------------|

(continued)
|t15h7------------t15h7t14h10----------t15h7t14h10----------t15h7t14h10-|
|-----t14h5------------------t14p5----------------t14p7-----------------|
|----------t14h0------------------t14p0----------------t14p0------------|
|-----------------------------------------------------------------------|
|-----------------------------------------------------------------------|

(continued)
|----------t14---|
|----------------|
|t14p7-----------|
|-----t14p0------| end of Verse Riff 1
|----------------|

Interlude
|--------------------------------|
|--------------------------------|
|--------------------------------|
|5---------------0---------------|
|5---------------5---------------|
|5---------------0---------------|

Pre-verse 2 Riff
|-----------------------------|
|-----------------------------|
|-----------------------------|
|-----------------------------|
|5--5-9~-5-9~---9~---9~~-9----|
|-------------5----5---~5-----|


Verse 2(This one I am not sure on...it was hard to make out the notes)
|----------------------|
|----------------------|
|----------------------|
|000000000-4444-5------|
|000000000-5555--5-----|
|000000000-5555---5----|

Interlude 2
|-----------|
|-----------|
|-------7---|
|--4--5-----|
|5----------|
|-----------|  Repeat this.

I am missing the next riff, which is just a variatio in the Interlude 2

Interlude 3
|-----------------------------------------------|
|---3p0-----3p03p0--3p0-----3p0-----3p03p0--3p0-|
|---0-0-----0-00-0--0-0-----0-0-----0-00-0--0-0-|
|-----------------------------------------------|
|5-------5---------------5----------------------|
|5-------5---------------5----------------------|

(continued)
|--------------------------------------|
|---3/5----33/5\3-----3/5----00h3p0----|
|---2/4----22/4\2-----2/4----00h2p0----|
|--------------------------------------|
|--------------------------------------|
|2-------2---------2-------2-----------|

Build Up to Outro riff
|
|5-------6------7------------|
|7-------7------7------------|
|7-------7------7---4b5r4----|
|5-------5------5------------|
|5-------5------5------------|

There you have it.  Those are all the riffs.  Here is the order:

Intro x2
Verse 1 x4
Interlude x2
Verse 1  x4
Intro  x1
Pre Verse x4
Verse 2  x6
Interlude 2  x2
Missing riff
Interlude 3  x4
Build Up
Missing Riff(outro riff)

Yep, that's it.  If I can figure out the part I am missing, I'll update the tab.  
enjoy.  It is very accurate.
            
Submit corrections


        Hey, Wanna Throw Up? lessons Hard to play? Try these video lessons and learn fast Hey, Wanna Throw Up? lessons
        
↑ Back to top | Tablatures and chords for acoustic guitar and electric guitar, ukulele, drums are parodies/interpretations of the original songs. You may use it for private study, scholarship, research or language learning purposes only