» » »

Minus The Bear - Fine Tabs

Artists:  A B C D E F G H I J K L M N O P Q R S T U V W X Y Z # 

Fine Tabs

(ver. 3) Click to play this song!
Minus The Bear
 Rating:
4/5 (6 votes)

 Fine lessons Tabs too difficult? Try these video lessons and learn fast
 
                This is that funky part at the beggining of the song.

    INTRO
E|----------------------------------14----14--------------------------------|
B|-------15-17-------------15-17--------------------------------------------|
G|-16-16-------16-16-16-16-------16----16-----------------------------------|
D|--------------------------------------------------------------------------|
A|--------------------------------------------------------------------------|
E|--------------------------------------------------------------------------|

I think this is correct, but I've only heard the song like 10 times. I think
this is the part Knudson plays as soon as Snider starts singing. I know what
part I'm talking about, I just don't know if it's right. It follows the same
pattern as the lyrics, you know what I mean.
VERSE
E|----------14-14---------------------------14-14---------------------------|
B|-------17-------17-17-15-15-----15-17-17----------------------------------|
G|-16-16-----------------------16-------------------------------------------|
D|--------------------------------------------------------------------------|
A|--------------------------------------------------------------------------|
E|--------------------------------------------------------------------------|

I think this is the whole song, but it's been a while. I had to transcribe it
There are no pull offs or hammer ons or anything, so I didn't bother doing a
tablature explanation key. Later!
            
Submit corrections


        Fine lessons Hard to play? Try these video lessons and learn fast Fine lessons
        
↑ Back to top | Tablatures and chords for acoustic guitar and electric guitar, ukulele, drums are parodies/interpretations of the original songs. You may use it for private study, scholarship, research or language learning purposes only