Home » M » Minor Threat »

Minor Threat - Minor Threat Tabs

Artists:  A B C D E F G H I J K L M N O P Q R S T U V W X Y Z # 

Minor Threat Tabs

(ver. 3) Click to play this song!
Minor Threat
"Minor Threat" by Minor Threat

d=Down U=Up

Intro

 d d d d d d d d d d d d dud dud 
----------------------------------------
----------------------------------------
----------------------------------------
-7-7-7-7---------9-9-9-9-555------------
-5-5-5-5-7-7-7-7-7-7-7-7-333555---------
---------5-5-5-5-0-0-0-0----333---------
                 |             |
                 you have to play this really fast

Bridge

all down
---------------------------------------
---------------------------------------
---------------------------------------
-4-4-4-4---------4-4-4-4-7-7-7-7-------
-2-2-2-2-5-5-5-5-2-2-2-2-5-0-5-0-------
---------3-3-3-3-----------------------

Chourus
 d d u d d u d d u d d d d u d d u d d u d d
-------------------------------------------------
-------------------------------------------------
-------------------------------------------------
-7-------9-9-9-5-5-5---7-------9-9-9-5-5-5-------
-5-7-7-7-7-7-7-3-3-3-5-5-7-7-7-7-7-7-3-3-3-5-----
---5-5-5-------------3---5-5-5-------------3-----
            
Submit corrections

↑ Back to top | Tablatures and chords for acoustic guitar and electric guitar, ukulele, drums are parodies/interpretations of the original songs. You may use it for private study, scholarship, research or language learning purposes only