Home » M » Minor Threat »

Minor Threat - It Follows Bass

Artists:  A B C D E F G H I J K L M N O P Q R S T U V W X Y Z # 

It Follows Bass

(ver. 1) Click to play this song!
Minor Threat
-------------------------------------------------------------------------------
-------------------------------------------------------------------------------


Tuning: Standard (EADG)


Song in Parts:
Intro/Verse
Chorus
Intro Verse
Chorus
Post Chorus
Break
Chorus (x3)
End

INTRO/Verse:
G|---------------------------------------------------------------------------|
D|---------------------------------------------------------------------------|
A|2-2-2-2-1-0--5-5-5---------------------------------------------------------|
E|-------------------2-2-2-0-0-0-000-0-0-0-----------------------------------|


Chorus:
G|---------------------------------------------------------------------------|
D|---------------------------------------------------------------------------|
A|---------------------------------------------------------------------------|
E|3-3-3--5-5-5--0-0-0--3-3-3-5-5-5-0-0-0-3-3-3-5-5-5-0-0-0-------------------|

G|---------------------------------------------|
D|---------------------------------------------|
A|---------------------------------------------|
E|3-3-3-5-5-5-2-2-2----------------------------|

Post Chorus (x2):
G|---------------------------------------------|
D|---------------------------------------------|
A|-7---5---------------------------------------|
E|---7---5-0-222-222---------------------------|

Break (x2):
G|---------------------------------------------------------------------------|
D|---------------------------------------------------------------------------|
A|---------------------------------------------------------------------------|
E|-2-2-2-2-4-4-4-4-5-5-5-5-2-2-2-2-22-244-4-55-577-7-7-7-7-7-7---------------|

End:
G|---------------------------------------------------------------------------|
D|---------------------------------------------------------------------------|
A|---------------------------------------------------------------------------|
E|-0-0-0-0-0-0-0-------------------------------------------------------------|
            
Submit corrections

↑ Back to top | Tablatures and chords for acoustic guitar and electric guitar, ukulele, drums are parodies/interpretations of the original songs. You may use it for private study, scholarship, research or language learning purposes only