Home » M » Minor Threat »

Minor Threat - I Don't Wanna Hear It Tabs

Artists:  A B C D E F G H I J K L M N O P Q R S T U V W X Y Z # 

I Don't Wanna Hear It Tabs

(ver. 3) Click to play this song!
Minor Threat
"(2)
Minor Threat- I Don't Wanna Hear It
Released- June 01, 1984
Genre: Punk

Guitar I--Brian Baker 
Guitar II--Lyle Preslar

Standard Tuning:

e B G D A E



Bass Intro:

G-------------------------------------------------------------------||(0:00)
D-------------------------2-2-2-2-----------------------------------||
A-----------------2-2-2-2-------------------------------------------||
E-2-2-0-(2)-2-2-2---------------------------------------------------||


Intro: (Guitars I and II)

e-------------------------------------------------------------------||
B-------------------------------------------------------------------||(0:01)
G-------------------------------------------------------------------||X6
D-4-4-4-4/-9-9-9-9--------------------------------------------------||
A-2-2-2-2/-7-7-7-7----4-4-4-4--(4)-0--------------------------------||
E---------------------2-2-2-2--(2)-0--------------------------------||
                                     

Chorus: (Both Guitars)

e------------------------------------------------------------------||
B------------------------------------------------------------------||(0:15)
G------------------------------------------------------------------||X4
D-11-11-11-11-9/4/6-6-6-6/4----------------------------------------||
A-9--9--9--9/-7/2/4-4-4-4/2--4-------------------------------------||
E----------------------------2-------------------------------------||


Chorus Fill: (Both Guitars)

e------------------------------------------------------------------||
B------------------------------------------------------------------||(0:24)
G------------------------------------------------------------------||X1
D------------------------------------------------------------------||
A-11-11-11-11/9-4--4-4-4-4-4-4-4-4-4-4-----------------------------||
E-9--9--9--9-/7-2--2-2-2-2-2-2-2-2-2-2-----------------------------||


Verse: (Both Guitars)

e-----------------------------------------------------------------||
B-----------------------------------------------------------------||(0:26)
G-----------------------------------------------------------------||X6
D-4-4-4-4/-9-9-9-9------------------------------------------------||
A-2-2-2-2/-7-7-7-7-4-4-4-4-(4)-0----------------------------------||
E------------------2-2-2-2-(2)-0----------------------------------||


Chorus: (Both Guitars)

e-----------------------------------------------------------------||
B-----------------------------------------------------------------||(0:36)
G-----------------------------------------------------------------||X4
D-11-11-11-11/9/-4/-6-6-6-6/4-------------------------------------||
A-9--9--9--9-/7/-2/-4-4-4-4/2-4-----------------------------------||
E-----------------------------2-----------------------------------||


Chorus Fill 2: (Both Guitars)

e-----------------------------------------------------------------||
B-----------------------------------------------------------------||(0:45)
G-----------------------------------------------------------------||X1
D-11-11-11-11/9/4-9-9-9-9-9-9-9-9---------------------------------||
A-9--9--9--9-/7/2-7-7-7-7-7-7-7-7---------------------------------||
E-----------------------------------------------------------------||


Interlude: (Guitar I for 1 1/2 measures)

e----------------------------------------------------------------||
B----------------------------------------------------------------||(0:46)
G----------------------------------------------------------------||X2
D-------------------4-4-4-4/9-9-9-9------------------------------||
A-4-4---4-(4)-4-4-4-2-2-2-2/7-7-7-7------------------------------||
E-2-2p0-2-(2)-2-2-2----------------------------------------------||


Guitar II: (Second measure)

e----------------------------------------------------------------||(0:50)
B----------------------------------------------------------------||X1
G----------------------------------------------------------------||
D------------------4-4-4-4/9-9-9-9-------------------------------||
A------------------2-2-2-2/7-7-7-7-------------------------------||
E----------------------------------------------------------------||


Fill 3 (after Interlude):

e----------------------------------------------------------------||
B----------------------------------------------------------------||(0:52)
G----------------------------------------------------------------||X1
D----------------------------------------------------------------||
A-4-4-4-4--(4)-0-------------------------------------------------||
E-2-2-2-2--(2)-0-------------------------------------------------||


                        0}
Verse: (continuing from 0}
Both Guitars

e---------------------------------------------------------------||
B---------------------------------------------------------------||(0:53)
G---------------------------------------------------------------||X6
D-4-4-4-4/9-9-9-9-----------------------------------------------||
A-2-2-2-2/7-7-7-7-4-4-4-4--(4)-0--------------------------------||
E-----------------2-2-2-2--(2)-0--------------------------------||


Outro: (Both Guitars)

e---------------------------------------------------------------||
B---------------------------------------------------------------||(1:01)
G---------------------------------------------------------------||X4
D-11-11-11-11/9/4/6-6-6-6/4-------------------------------------||
A-9--9--9--9-/7/2/4-4-4-4/2-4-----------------------------------||
E---------------------------2-----------------------------------||


End Fill: Both Guitars:

e---------------------------------------------------------------||
B---------------------------------------------------------------||(1:11)
G---------------------------------------------------------------||X1
D---------------------------------------------------------------||
A------------4--------------------------------------------------||
E------------2--------------------------------------------------||
Ohhh!  Shut Up!


Legend:

(2)= hold note
/= slide
p= pull-off
"            
Submit corrections

↑ Back to top | Tablatures and chords for acoustic guitar and electric guitar, ukulele, drums are parodies/interpretations of the original songs. You may use it for private study, scholarship, research or language learning purposes only