Home » M » Minibosses »

Minibosses - Mega Man Bass

Artists:  A B C D E F G H I J K L M N O P Q R S T U V W X Y Z # 

Mega Man Bass

(ver. 1) Click to play this song!
Minibosses
"(2)
“Mega Man 2” by The Minibosses for bass.


This tab is not 100% correct, but it’s very close.  It’s a hard song to tab perfectly, 
I did my best.  If you think you can do it better, I encourage you to do so.

You really have to listen to the bass closesly before you try to play this, the rhythm 
a little strange at parts.

Password Screen
G|----------------------------------------|
D|-----7--------7--------6---------11-----|
A|----------------------------------------| x4
E|-5-5---5--5-5---5--4-4---4--9-9-9---9-9-|


Stage Select Screen(I couldn’t figure out the exact bass here, but he’s playing 
based off what the guitars are doing so I’ll give you that and you can mess around with it if 
wanna figure out the real part).
G|-------------------------------------|
D|-----3------6------5------4----------|
A|---4------4------4------4------4-6h7-|
E|-6------6------6------6------6-------|


Stage Intro
G|-------------------------------|
D|-------------------------------|
A|----------------------222------|
E|-8--8887--6-6665--444-------3~-|


Airman Stage
G|---------------------------------------|
D|-8---6-8--8-8----6-7--4--4-4-3-3-3-6-6-|
A|---8----------8------------------------|
E|---------------------------------------|

Break after the second one, then play:
G|-------------|
D|-6-6-6-6-6h7-|
A|-------------|
E|-------------|

G|-------------------------------------------|
D|-8---6-8--8-8----6-7--8---6-8--8-8---8-7-7-|
A|---8----------8---------8----------8-------|
E|-------------------------------------------|

G|----------------------------------------|
D|-6---4-6--6-6---5-6--6---4-6--6-6---4~~-|
A|---6----------6--------6----------6-----|
E|----------------------------------------|

G|------6----------6------8------------|
D|-4-44---4--4---4----6-6---6--6-6-6-6-|
A|-------------4-----------------------|
E|-------------------------------------|

You repeat these parts a few times, listen to how many times to play each part exactly 
where to start repeating.  Same goes for pretty much all stages.


Bubble Man Stage
(This part is pretty hard to play at first, it’s played very fast. Make sure you listen 
to the bass in the song before you try it.):
G|----12-------12----------12----------12-------12-|
D|-13----13----------13-------13-10-13----10-13----|
A|-------------------------------------------------|
E|----------11----11----11-------------------------|

G|----10-------10----------10----------10-------10-|
D|-12----12----------12-------12----12-------12----|
A|-------------------------------13-------10-------|
E|----------10----10----10-------------------------|
Repeat those two parts for a while.

Then play:
G|-----------------------------------|
D|------------------------------9-12-|
A|---------------------------10------|
E|-11-13-11--10-10--9--10-10---------|

G|----------------------------------------------------|
D|----------------------------------------------------|
A|-11-11-11-11-11-11-11-11-13-13-13-13-13-13-13-13-13-|
E|----------------------------------------------------|

G|-----------------------------------|
D|------------------------------9-12-|
A|---------------------------10------|
E|-11-13-11--10-10--9--10-10---------|

G|-------------------------------------------------|
D|----10-13----10-13----10----12-15----12-15----12-|
A|-11-------11-------11----13-------13-------13----|
E|-------------------------------------------------|

Repeat all parts as necessary.


Quick Man Stage
G|----------------------|
D|-10-10--10-10----8-10-|
A|--------------10------| x2
E|----------------------|

G|----------------|
D|-8-8--8-8---6-8-|
A|----------8-----| x2
E|----------------|

Repeat those as necessary, remember to break at parts, then play(this part is not 
correct):
G|----------------13--------------------------15-------|
D|-------------------13--------------------------15----|
A|-11-11-11-11-11-------11--13-13-13-13-13-13-------13-|
E|-----------------------------------------------------|

G|----------------16--------------------------17-------|
D|-------------------16--------------------------17----|
A|-14-14-14-14-14-------14--15-15-15-15-15-15-------15-|
E|-----------------------------------------------------|

Again, repeat parts as neccesary.


Flash Man Stage
G|-----4-7-6---5-4-------------------------------------|
D|---5-------7-----5-7-5---------------------------9---|
A|-7---------------------7-5-7--77-77-77-77-77--77---5-|
E|-----------------------------------------------------|

(Listen closely for the timing in this part):
G|---------------------------------------------------------|
D|--------9-7------------9-7-----------7-4----------9-7----|
A|-7-77-7-----10--7-77-7-----10-5-55-5-----5-7-77-7-----10-|
E|---------------------------------------------------------|

Repeat a few times then:
G|--------------------------------------|
D|--------------------------------------|
A|-5--555555-4444-3333------------------|
E|----------------------555555555555555-|

Repeat all parts as necessary.


I can’t remember what part of the game this next music goes to, but whatever:
G|--------------------------------------|
D|--------------------------------------|
A|--------------------------------------|
E|-888688868886888688868886888688868886-

G|--------------------|
D|--------------------|
A|------6-8-----------|
E|-88-8-----8-888-6-8-|
Do this a few times and end with:

G|-------12-12-------12-12-|
D|-------------------------|
A|-10-10-------10-10-------|
E|-------------------------|

Repeat as necessary

Robot Master Defeat Music
G|-----------------|
D|-----------------|
A|-----------2-2~~-|
E|-55-66-77--------|

The next part has way too much going on for me to figure it out, sorry.  Figure it out 
ear or skip to Dr. Wily Stage:

Dr. Wily Stage
(You hit the notes here a lot more times then I put them most of the time.  You hit 
first notes at a horse galloping kind of rate.)
G|-----------------------------------------------------------|
D|-----------------------------------------------------------|
A|-16-16-16-16-16-16-16-16-16-16--12-12-12-12-12-12-12-12-12-|
E|-----------------------------------------------------------|

G|----------------------------------------------------------|
D|----------------------------------------------------------|
A|-14-14-14-14-14-14-14-14-14-16-16-16-16-14-16-16-16-14-16-|
E|----------------------------------------------------------|

Repeat that as necessary then play:
G|-------------------------------------------------------|
D|-------------------19-14-------14-------19-------14----|
A|-17-17-17-17-17-17-------17-17----17-17----17-17----17-|
E|-------------------------------------------------------|

G|-------------------------16-------16----------|
D|-------------------18-15----------------18----|
A|-16-16-16-16-16-16----------16-16----16----16-|
E|----------------------------------------------|

Listen for when to repeat each part again, and then there’s this part:
G|----------------------------------------------------------|
D|-------------------------------------------14-------------|
A|-12-12-12-12-12-14-14-14-14-14-16-16-16-16----16-16-16-16-| x2
E|----------------------------------------------------------|

Right before the end music, play:
G|----------------------------|
D|----------------------------|
A|-16--14-16--14-16--12-14-16-|
E|----------------------------|

Game End Music
G|--------------------------------------------|
D|--------------------------------------------|
A|-12--12-12--12--12-12--12--12-12--12--12-12-|
E|--------------------------------------------|

G|------------------------------------------|
D|------------------------------------------|
A|-9--99--9--99--9--99--9--99--5--55--7--77-|
E|------------------------------------------|

G|------------------------------------------|
D|------------------------------------------|
A|-0--00--9--99--5--55--5--55--2--22--7--77-|
E|------------------------------------------|

G|------------------------------------------|
D|------------------------------------------|
A|-9--99--8--88--7--77--6--66--5--55--7--77-|
E|------------------------------------------|

G|----------------------------------------|
D|----------------------------------------|
A|-10--10-10--10-10--10-10--9--99--99--99-|
E|----------------------------------------|

G|--------------------------------|
D|--------------------------------|
A|-8-88--88--88--5--55-7~~~~~--0~-|
E|--------------------------------|

Again, this tab is not 100% correct, but is as close as I could possibly get it.
"            
Submit corrections

↑ Back to top | Tablatures and chords for acoustic guitar and electric guitar, ukulele, drums are parodies/interpretations of the original songs. You may use it for private study, scholarship, research or language learning purposes only