Home » M » Minibosses »

Minibosses - Mega Man Tabs

Artists:  A B C D E F G H I J K L M N O P Q R S T U V W X Y Z # 

Mega Man Tabs

(ver. 1) Click to play this song!
Minibosses
"(2)
Tuning:normal EADGBe

this tab mostly contains the lead part
i'll call each parts stages because i
forgot which sections go to which boss's stage

 *password screen
e|-------------------------------|----11-----------------------------------|
B|14-14-13-13-13-12-12-----------|-12--------------------------------------|
G|---------------------13---13-13|-----------------------------------------|
D|-------------------------------|-----------------------------------------|
A|-------------------------------|---play line four times------------------|
E|---------end here fourth time->|-----------------------------------------|

 *stage select         this line has two parts
e|-------------------------------|----6-----8-----7-----6------------------|
B|----6-----9-----8-----7--------|--6-----6-----6-----6-----6-8-9----------|
G|--6-----6-----6-----6-----6-8-9|6-----6-----6-----6-----6----------------|
D|8-----8-----8-----8-----8------|-----------------------------------------|
A|-------------------------------|-----------------------------------------|
E|-------play eight times--------|----play 2nd, 4th, 6th, and 8th times----|
  . .   . .   . .   . .   . .     . .   . .   . .   . .   . .
 *stage intro
e|------------------------------------------------14-14-14---15-13----13-15|
B|13-13-13-13-11-13---15-15-15-15-13-15---16-16-16-----------------16------|
G|-------------------------------------------------------------------------|
D|-------------------------------------------------------------------------|
A|-------------------------------------------------------------------------|
E|-------------------------------------------------------------------------|

 *first stage
e|--|----------------------------------------------------------------------|
B|--|----------------------------------------------------------------------|
G|10|13-12-11-10-13-12-11-10--10-------------------------------------------|
D|--|----------------------------13-11-10--11-13--------10-----------------|
A|--|--------------------------------------------11--13----13--------------|
E|--||-solo parts----|
E|---------------------------------------------------------|---------------|

  solo 1
e|-------12-----------------------------------12-------------------------16|
B|1214-12--141214-12-1214--------------1214-12--141214-12-12--1213-131316--|
G|------------------------131413-----13---------------------13-------------|
D|------------------------------14-14--------------------------------------|
A|-------------------------------------------------------------------------|
E|-------------------------------------------------------------------------|

  solo 2
e|-------------------------------------------------------------------------|
B|-------------------------------------------------------------------------|
G|-----4------------4------------------------------------------------------|
D|6---4--7-6-7-6---4--7-6-7-4--467-----------------------------------------|
A|--------------------------------6----------------------------------------|
E|-------------------------------------------------------------------------|

  solo 3
e|---------12-16141211-------12-12141211-11----16-14-12-11-111211----------|
B|1214-1214-----------14-1214--------------1412------------------14--------|
G|-------------------------------------------------------------------------|
D|-------------------------------------------------------------------------|
A|-------------------------------------------------------------------------|
E|-------------------------------------------------------------------------|

  part 2
e|-------97-------------------------------97-------------------------------|
B|----------10-9-7-7-99-9--7-99-9------------10-9-7------------------------|
G|9-9989-----------x-xx-x--x-xx-x-89-9989-----------8h9-8------------------|
D|-----------------4-66-6--4-66-6-------------------------11---------------|
A|-------------------------------------------------------------------------|
E|-------------------------------------------------------------------------|

 *outro/credits? (i think this is the credits music)
e|-------------------|-----------------------------------------------------|
B|-------------------|-----------------------------14----------------------|
G|13-----1316-1413---|13-----1316-1413----14-141416--13-131416-------------|
D|-----14----------16|-----14----------16----------------------------------|
A|---16--------------|---16------------------------------------------------|
E|-------play 3 times|-----------------------------------------------------|

e|12-12--------------------------17161719----------------------------------|
B|-----1514----------14-------------------------14-14141514-------14hb-----|
G|---------1615-15-16---14131416------------1114-----------16-1616---------|
D|----------------------------------------12-------------------------------|
A|-------------------------------------------------------------------------|
E|-------------------------------------------------------------------------|

e|----------------------14-------------------------------------------------|
B|--------------------14---14--------14------------------------------------|
G|14-1413141614-141314--------161416--------13-----------------------------|
D|-------------------------------------16-16-------------------------------|
A|-------------------------------------------------------------------------|
E|-------------------------------------------------------------------------|

e|-------------------------------------------------------------------------|
B|------------------15-1412------------------------------------------------|
G|14---------14--13---------14-171614--171614------------------------------|
D|---1612--16--14------------------------------15--151517----------------14|
A|-------12---------------------------------you better have lost of sustain|
E|----------------------------------------------to hold this last note-----|

| X  random notes (see note in tab)
| x  muted note
| hb quick half bend
| r  release bend
| b  bend
| .  palm mute
| /  slide up
| \  slide down
| h  hammer-on
| p  pull-off
| ~  vibrato
| +  harmonic
"            
Submit corrections

↑ Back to top | Tablatures and chords for acoustic guitar and electric guitar, ukulele, drums are parodies/interpretations of the original songs. You may use it for private study, scholarship, research or language learning purposes only