Home » M » Minibosses »

Minibosses - Castlevania Tabs

Artists:  A B C D E F G H I J K L M N O P Q R S T U V W X Y Z # 

Castlevania Tabs
Version #2
Minibosses


Copy URL

Tuning: Eb Ab Db Gb Bb eb (Half step down, stupid)

Key:

h = Hammer on
p = Pull off
~ = Tremelo
That's about it... the rest is self explanitory

BY NO MEANS IS THIS IN THE CORRECT TIMING. If you want to get the correct timing, listen to the song.

Here goes...

Castlevania by the Minibosses

                     <4X>                    (0:13)
e|-------------------------------------------|-----14---13----12--11------------------||
B|-------------------------------------------|--------------------------0---3---~5----||
G|o-----------------------------------------o|----------------------------------------||
D|o-----------------------------------------o|----------------------------------------||
A|---10-10-10h9-10-10/12---10-10-10h9-~10----|----------------------------------------||
E|-------------------------------------------|----------------------------------------||

                                                              /\
                                                              ||
              ||------------------------2x----------------------
              \/

e|---14---13---12---11--------------|---------------------------------------------~10-
B|-----------------------0--3-------|-----12-11-12-11-12------12-11-12-11-12----------
G|-----------------------------~2---|--------------------9-12----------------9-12-----
D|----------------------------------|-------------------------------------------------
A|----------------------------------|-------------------------------------------------
E|----------------------------------|-------------------------------------------------

                          A (0:26)
e|-------~10--------------|--------------------------------------------------~10-
B|------------------------|--12-11-12-11-12------12-11-12-11-12------12----------
G|--9-12------------7--8--|o-----------------9-12----------------9-12----9-12----
D|--------------10--------|o-----------------------------------------------------
A|------------------------|------------------------------------------------------
E|------------------------|------------------------------------------------------

               (0:~38)
e|-------~10---15-14--14-10----10-------14--10----10----------------------12----
B|--------------------------10----10-----------10----10----------12----12-------
G|--9-12-----------------------------11-----------------11--9-12----12----------
D|------------------------------------------------------------------------------
A|------------------------------------------------------------------------------
E|------------------------------------------------------------------------------


e|--14-10----10-------14-10----10----------------------12----------------12-----
B|--------10----10----------10----10----------12----12----------12----12--------
G|-----------------11----------------11--9-12----12--------9-12----12-----------
D|------------------------------------------------------------------------------
A|------------------------------------------------------------------------------
E|------------------------------------------------------------------------------

    (0:50)
e|-----------------15--17--19---------------14--15--17--------------12--14--15--
B|------------------------------------------------------------------------------
G|--12---14---16--------------11---12--14----------------9--11--12--------------
D|------------------------------------------------------------------------------
A|------------------------------------------------------------------------------
E|------------------------------------------------------------------------------


e|-------------------------------15--17--19--------------14--15--17-------------
B|------------------------------------------------------------------------------
G|--8--9--11---------12--14--16--------------11--12--14-------------9--11--12---
D|------------------------------------------------------------------------------
A|------------------------------------------------------------------------------
E|------------------------------------------------------------------------------

                                  (1:18) |---REPEAT FROM 'A' 
e|--12--14--15---------------------------|----------------------------------------
B|---------------------------------------|----------------------------------------
G|--------------8--9--11----11--12--14--o|-----(2:15)Rest for bass and drum solo--
D|--------------------------------------o|----------------------------------------
A|---------------------------------------|----------------------------------------
E|---------------------------------------|----------------------------------------

  (2:26)
e|----------7------6-7-6--------------7---------6-7-6---------------------------
B|----5------------------8-------5--------------------8-----3--2--1-------------
G|-------------------------------------------------------------------4--3--2----
D|------------------------------------------------------------------------------
A|------------------------------------------------------------------------------
E|------------------------------------------------------------------------------

e|------------------------------------------------------------------------------
B|----------3--2--1----------------------5--5----5---4---------5-5---5--4-------
G|-----2-------------4--3--2----------3---------------------3-------------------
D|--5--------------------------5--2---------------------------------------------
A|------------------------------------------------------------------------------
E|------------------------------------------------------------------------------

(2:55)Break for bass and drum solo


 (3:07)
e|-----7----6--7--6------------7-----6-7-6--------------------------------------
B|--5---------------8-------5--------------8----3--2--1-----------------3--2--1-
G|-------------------------------------------------------4--3--2----------------
D|----------------------------------------------------------------5--2----------
A|------------------------------------------------------------------------------
E|------------------------------------------------------------------------------

e|---------------------------------------------------------------------------------
B|----------------------5-5--5--4---------5-5--5--4------5-5---5--4-----5-5--5--4--
G|--4--3--2----------3-----------------3--------------3---------------3------------
D|------------5--2-----------------------------------------------------------------
A|---------------------------------------------------------------------------------
E|---------------------------------------------------------------------------------

(3:40)Rest

(3:57)
e|--12-12--10-9-------------------------10-----12-12--10-9----------------------
B|------------------------10-12---12-10------------------------------10--12-----
G|---------------9--11-12-------9---------------------------9--11-12--------9---
D|------------------------------------------------------------------------------
A|------------------------------------------------------------------------------
E|------------------------------------------------------------------------------

e|-----------------------19--18-19-18----19--19-18---18-17----18-19-18-19-18-19-18--
B|--12--10-----------17---------------20--------------------------------------------
G|----------7-----------------------------------------------------------------------
D|----------------------------------------------------------------------------------
A|----------------------------------------------------------------------------------
E|----------------------------------------------------------------------------------

e|-------19---18-19-18----------19--19-18----18-17-----18-19-18-19-18-19-18-----
B|---17----------------20-------------------------------------------------------
G|------------------------------------------------------------------------------
D|------------------------------------------------------------------------------
A|------------------------------------------------------------------------------
E|------------------------------------------------------------------------------

(4:13)
e|------8--7-------------8--7--------------8--7---------------8--7--9--11-------
B|----7------8--5-----7--------5--------7--------8--5--7--10--------------------
G|--8--------------8-----------------8------------------------------------------
D|------------------------------------------------------------------------------
A|------------------------------------------------------------------------------
E|------------------------------------------------------------------------------

e|--12-12-0-0--------------------------5----12-12-0-0---------------------------
B|----------------------5--8--------7----------------------------5--8-----------
G|--------------5---5---------7--7-------------------------5--5--------7--7-----
D|------------------------------------------------------------------------------
A|------------------------------------------------------------------------------
E|------------------------------------------------------------------------------

e|--12-12--10--9---------------------------10--------12-12--10--9---------------
B|-------------------------10-12----12--10-----------------------------------10-
G|----------------9--11-12-------9---------------------------------9--11-12-----
D|------------------------------------------------------------------------------
A|------------------------------------------------------------------------------
E|------------------------------------------------------------------------------
                          (4:38)
e|----------------------------19--18-19-18--------19--19-18--18--17----18-19-18-19-18-19-18-
B|--12----12--10----------17---------------20-----------------------------------------------
G|-----9----------7-------------------------------------------------------------------------
D|------------------------------------------------------------------------------------------
A|------------------------------------------------------------------------------------------
E|------------------------------------------------------------------------------------------

e|------19--18--19--18------19--19-18--18-17---18-19-18-19-18-19-18-------------
B|--17------------------20------------------------------------------------------
G|------------------------------------------------------------------------------
D|------------------------------------------------------------------------------
A|------------------------------------------------------------------------------
E|------------------------------------------------------------------------------
      (4:46)
e|----------8--7--------------8--7-------------8--7----------------8-7-9-11--12-12-0-0----------
B|-------7--------8--5-----7--------5-------7--------8--5----7-10-------------------------------
G|----8-----------------8----------------8------------------------------------------------------
D|----------------------------------------------------------------------------------------------
A|----------------------------------------------------------------------------------------------
E|----------------------------------------------------------------------------------------------

e|------------------------5----12--12--0--0---------------------------||
B|---------5--8--------7----------------------------5--8--------------||
G|---5--5--------7--7-------------------------5--5--------7--7--5--7--||
D|--------------------------------------------------------------------||
A|--------------------------------------------------------------------||
E|--------------------------------------------------------------------||

...Tabbing this out was easily one of the worst mistakes i've ever made. This was my very first tab, and consequently... my very last... if I have to tab anything else out, I'm going to shoot myself in the face.

Luckily though... I'm half way through Wizards and Warriors... so... If I don't get totally flamed for this tab, AND MXTabs can get their *** together, i'll post it when I finish. Don't hold your breath though...

Or... if you're just a fan of the Minibosses, and you want to talk or whatever, 
my AIM S/N is Spicy McHaggi5
            
Submit corrections

↑ Back to top | Tablatures and chords for acoustic guitar and electric guitar, ukulele, drums are parodies/interpretations of the original songs. You may use it for private study, scholarship, research or language learning purposes only