Home » M » Mindless Self Indulgence »

Mindless Self Indulgence - Stay Home Tabs

Artists:  A B C D E F G H I J K L M N O P Q R S T U V W X Y Z # 

Stay Home Tabs

(ver. 1) Click to play this song!
Mindless Self Indulgence
 Rating:
4.3/5 (21 vote)
                [Intro]

(clean guitar 1)

e|---------------------|
B|-----------6---------|
G|-----7--8----8--8----| (repeat 4 times)
D|--8------------------|
A|---------------------|
E|---------------------|

[Verse 1]

e|---------------------|
B|-----------6---------|
G|-----7--8----8--8----| (repeat 7 times)
D|--8------------------|
A|---------------------|
E|---------------------|

I believe in self-assertion
Destiny is like diversion
Now it seems I've got my head on straight
I'm a freak without provision
Seems I've made the right decision
Try to turn back now, it might be too late

(at the end play this)

(clean guitar 2)

e|---------------------|
B|---------------------|
G|---------------------| 
D|---------------------|
A|--8p6-8p6-8p6-8p6----|
E|---------------------|

[Pre-chorus]

(clean guitar 2)

e|---------------------|
B|---------------------|
G|---------------------| 
D|---------------------|
A|--8p6-8p6-8p6-8p6----|
E|---------------------|

(clean rhythm guitar)

e|---------------------|
B|---------------------|
G|---------------------| 
D|--10-10-10-10-10-----|
A|--8--8--8--8--8------|
E|---------------------|

(only bass, guitar is played at the end of these lyrics)

And it's off to the morning and back again
Same old day, same situation
The happiness is back as if to say



[Chorus]

(distorted guitar)

e|-------------------------------------------|
B|-------------------------------------------|
G|-3--3------8--8------3--3------------------|
D|-3--3------8--8------3--3----5--5--5--6----| (repeat 4 times)
A|-1--1------6--6------1--1----5--5--5--6----|
E|-----------------------------3--3--3--4----|

I wanna stay home today
Don't wanna go out
If anyone comes to play
Gonna get thrown out

[End Chorus]

(distorted guitar)

e|-----------------------------------|
B|-----------------------------------|
G|-3--3----8--8----------------------|
D|-3--1----8--8-------5---5---5-6-8--|
A|-1--1----6--6-------5---5---5-6-8--|
E|--------------------3---3---3-4-6--|

I wanna stay home today
Don't want no company
No way
Yeah , yeah, yeah

[Verse 2]

(at the end of these lyrics play this)

(clean guitar 2)

e|---------------------|
B|---------------------|
G|---------------------| 
D|---------------------|
A|--8p6-8p6-8p6-8p6----|
E|---------------------|

A simple life's my cup of tea
I don't need nobody but me
What I wouldn't give just to be left alone

[Pre-chorus]

e|---------------------|
B|-----------6---------|
G|-----7--8----8--8----| (repeat 3 times)
D|--8------------------|
A|---------------------|
E|---------------------|

I wanna be a millionaire someday
And know what it feels like to give it away
Watch me march to the beat of my own drum
And it's over and over and over again

(then only bass)

Same old day, same situation
The happiness is back as if to say

(at the end of these lyrics play this)

(clean guitar 2)

e|---------------------|
B|---------------------|
G|---------------------| 
D|---------------------|
A|--8p6-8p6-8p6-8p6----|
E|---------------------|

(clean rhythm guitar)

e|---------------------|
B|---------------------|
G|---------------------| 
D|--10-10-10-10-10-----|
A|--8--8--8--8--8------|
E|---------------------|

[Chorus]

(distorted guitar)

e|-------------------------------------------|
B|-------------------------------------------|
G|-3--3------8--8------3--3------------------|
D|-3--3------8--8------3--3----5--5--5--6----| (repeat 4 times)
A|-1--1------6--6------1--1----5--5--5--6----|
E|-----------------------------3--3--3--4----|

I wanna stay home today
Don't wanna go out
If anyone comes my way
Gonna get thrown out
I wanna stay home today
Don't want no company
No way
Yeah, yeah, yeah

[Bridge]

(distorted guitar)

PM  . . . .    
e|------------------|-----------------|-----------------|--------------------------|
B|------------------|-----------------|-----------------|--------------------------|
G|--5-5-5-5-5-5-5-5-|-8-8-8-8-8-8-8-8-|-6-6-6-6-6-6-6-6-|--------------------------|
D|--5-5-5-5-5-5-5-5-|-8-8-8-8-8-8-8-8-|-6-6-6-6-6-6-6-6-|-4-4-4-4-4-4-4-4-4-4-4-4--|
A|--3-3-3-3-3-3-3-3-|-6-6-6-6-6-6-6-6-|-4-4-4-4-4-4-4-4-|-4-4-4-4-4-4-4-4-4-4-4-4--|
E|------------------|-----------------|-----------------|-2-2-2-2-2-2-2-2-2-2-2-2--|

Rain, rain every day
Everyone would just stay away now
Come another day
Come another day

[Drum solo]

I wanna stay home today
I wanna stay home today,
I wanna stay home, stay home, stay home, stay h-

[Chorus]

(distorted guitar)

e|-------------------------------------------|
B|-------------------------------------------|
G|-3--3------8--8------3--3------------------|
D|-3--3------8--8------3--3----5--5--5--6----| (repeat 4 times)
A|-1--1------6--6------1--1----5--5--5--6----|
E|-----------------------------3--3--3--4----|

I wanna stay home today
Don't wanna go out
If anyone comes my way
Gonna get thrown out
I wanna stay home today

[End Chorus]

e|-----------------------------------|
B|-----------------------------------|
G|-3--3----8--8----------------------|
D|-3--1----8--8-------5---5---5-6-8--|
A|-1--1----6--6-------5---5---5-6-8--|
E|--------------------3---3---3-4-6--|

I wanna stay home today
Don't want no company
No way
Yeah, yeah, yeah

[Chorus]

e|-------------------------------------------|
B|-------------------------------------------|
G|-3--3------8--8------3--3------------------|
D|-3--3------8--8------3--3----5--5--5--6----| (repeat 4 times)
A|-1--1------6--6------1--1----5--5--5--6----|
E|-----------------------------3--3--3--4----|

I wanna stay home today
Don't wanna go out
If anyone comes my way
Gonna get thrown out
I wanna stay home today


[End Chorus]

e|-----------------------------------|
B|-----------------------------------|
G|-3--3----8--8----------------------|
D|-3--1----8--8-------5---5---5-6-8--|
A|-1--1----6--6-------5---5---5-6-8--|
E|--------------------3---3---3-4-6--|

I wanna stay home today
Don't want no company
No way
Yeah , yeah, yeah

[Outro]

e|---------------------|
B|-----------6---------|
G|-----7--8----8--8----| (repeat 8 times)
D|--8------------------|
A|---------------------|
E|---------------------|
            
Submit corrections

↑ Back to top | Tablatures and chords for acoustic guitar and electric guitar, ukulele, drums are parodies/interpretations of the original songs. You may use it for private study, scholarship, research or language learning purposes only