» » »

Miley Cyrus - Wrecking Ball Tabs

Artists:  A B C D E F G H I J K L M N O P Q R S T U V W X Y Z # 

Wrecking Ball Tabs

(ver. 1) Click to play this song!
Miley Cyrus
 Rating:
4.3/5 (24 votes)

 Wrecking Ball lessons Tabs too difficult? Try these video lessons and learn fast
 
                [Verse]

   1 + 2 + 3 + 4 +   1 + 2 + 3 + 4 +   1 + 2 + 3 + 4 +   1 + 2 + 3 + 4 +   1 + 2 + 3 + 4 +

e|-------------7---|-----7-------7---|-----7-----------|-----------------|-----------------|
B|-----------------|-----------------|-----------------|-7-------7-5-7-8-|-5---------------|
G|-----------------|-9-------9-------|-7-------7---7---|-7---------------|-5---------------|
D|-----------------|-----------------|-----------------|-7---------------|-5---------------|
A|-----------------|-7---------------|-10--------------|-5---------------|-3---------------|
E|-----------------|-----------------|-----------------|-----------------|-----------------|

e|-------------7---|-----7-------7---|-----7-----------|-----------------|-----------------|
B|-----------------|-----------------|-----------------|-7-------7-5-7-8-|-5---------------|
G|-----------------|-9-------9-------|-7-------7---7---|-7---------------|-5---------------|
D|-----------------|-----------------|-----------------|-7---------------|-5---------------|
A|-----------------|-7---------------|-10--------------|-5---------------|-3---------------|
E|-----------------|-----------------|-----------------|-----------------|-----------------|

e|-----------------|-----------------|-----------------|-----------------|
B|-5---5---5---3---|-5---5---5---3---|-3-----3-3-------|-----------------|
G|---------------4-|--------------4--|-------------5-4-|-0---------------|
D|-2---------------|-----------------|-0---------------|-----------------|
A|-----------------|-----------------|-----------------|-3-----------2-5-|
E|-----------------|-3---------------|-----------------|---------3-5-----|

e|-----------------|-----------------|-----------------|-----------------|
B|-5---5---5---3---|-5---5---5---3---|-3-----3-3-------|-----------------|
G|---------------4-|--------------4--|-------------5-4-|-0---------------|
D|-2---------------|-----------------|-0---------------|-----------------|
A|-----------------|-----------------|-----------------|-3---------------|
E|-----------------|-3---------------|-----------------|-----------------|


[Chorus]

   1 + 2 + 3 + 4 +   1 + 2 + 3 + 4 +   1 + 2 + 3 + 4 +   1 + 2 + 3 + 4 +   1 + 2 + 3 + 4 +

e|-------8-8-8-8-8-|-8-----7-7-------|-------5-8-7-5---|-8-----7-7-------|-5-5-8-7-5-3-----|
B|-----------------|-----------------|---------------8-|---------8-------|-----------------|
G|-----------------|-----------------|-----------------|---------9-------|-----------------|
D|-----------------|-----------------|-----------------|---------9-------|-----------------|
A|-----------------|-----------------|-5---------------|-7-------7-------|-3---------------|
E|-----------------|-3---------------|-----------------|-----------------|-----------------|

e|-8---7---7-------|-----5-5-8-7-5---|-----------8-7-5-|-8---------------|--------8-7-5-8--|
B|-----------------|---------------8-|-8-------8-------|---------------8-|-8----8----------|
G|-----------------|-----------------|-----------------|-----------------|-----------------|
D|-----------------|-----------------|-----------------|-----------------|-----------------|
A|-----------------|-5---------------|-7---------------|-----------------|-7---------------|
E|-3---------------|-----------------|-----------------|-8---------------|--------------8--|


[Verse]

   1 + 2 + 3 + 4 +   1 + 2 + 3 + 4 +   1 + 2 + 3 + 4 +   1 + 2 + 3 + 4 +   1 + 2 + 3 + 4 +

e|-------------7---|-----7-------7---|-----7-----------|-----------------|-----------------|
B|-----------------|-----------------|-----------------|-7-------7-5-7-8-|-5---------------|
G|-----------------|-9-------9-------|-7-------7---7---|-7---------------|-5---------------|
D|-----------------|-----------------|-----------------|-7---------------|-5---------------|
A|-----------------|-7---------------|-10--------------|-5---------------|-3---------------|
E|-----------------|-----------------|-----------------|-----------------|-----------------|

e|-------------7---|-----7-------7---|-----7-----------|-----------------|-----------------|
B|-----------------|-----------------|-----------------|-7-------7-5-7-8-|-5---------------|
G|-----------------|-9-------9-------|-7-------7---7---|-7---------------|-5---------------|
D|-----------------|-----------------|-----------------|-7---------------|-5---------------|
A|-----------------|-7---------------|-10--------------|-5---------------|-3---------------|
E|-----------------|-----------------|-----------------|-----------------|-----------------|

e|-----------------|-----------------|-----------------|-----------------|
B|-5---5---5---3---|-5---5---5---3---|-3-----3-3-------|-----------------|
G|---------------4-|--------------4--|-------------5-4-|-0---------------|
D|-2---------------|-----------------|-0---------------|-----------------|
A|-----------------|-----------------|-----------------|-3-----------2-5-|
E|-----------------|-3---------------|-----------------|---------3-5-----|

e|-----------------|-----------------|-----------------|-----------------|
B|-5---5---5---3---|-5---5---5---3---|-3-----3-3-------|-----------------|
G|---------------4-|--------------4--|-------------5-4-|-0---------------|
D|-2---------------|-----------------|-0---------------|-----------------|
A|-----------------|-----------------|-----------------|-3---------------|
E|-----------------|-3---------------|-----------------|-----------------|


[Chorus]

   1 + 2 + 3 + 4 +   1 + 2 + 3 + 4 +   1 + 2 + 3 + 4 +   1 + 2 + 3 + 4 +   1 + 2 + 3 + 4 +

e|-------8-8-8-8-8-|-8-----7-7-------|-------5-8-7-5---|-8-----7-7-------|-5-5-8-7-5-3-----|
B|-----------------|-----------------|---------------8-|---------8-------|-----------------|
G|-----------------|-----------------|-----------------|---------9-------|-----------------|
D|-----------------|-----------------|-----------------|---------9-------|-----------------|
A|-----------------|-----------------|-5---------------|-7-------7-------|-3---------------|
E|-----------------|-3---------------|-----------------|-----------------|-----------------|

e|-8---7---7-------|-----5-5-8-7-5---|-----------8-7-5-|-8---------------|--------8-7-5-8--|
B|-----------------|---------------8-|-8-------8-------|---------------8-|-8----8----------|
G|-----------------|-----------------|-----------------|-----------------|-----------------|
D|-----------------|-----------------|-----------------|-----------------|-----------------|
A|-----------------|-5---------------|-7---------------|-3---------------|-7------------3--|
E|-3---------------|-----------------|-----------------|-----------------|-----------------|


[Bridge]

   1 + 2 + 3 + 4 +   1 + 2 + 3 + 4 +     1 + 2 + 3 + 4 +   1 + 2 + 3 + 4 +   

e|-----------8-7-7-|-----------8-7-7/5-|-------------8-7-|-7/5-------------|
B|-8-8-8-8-8-------|-8-8-8-8-8---------|-5h7-7-7-7-7-----|-----------------|
G|-----------------|-------------------|-----------------|-----------------|
D|-----------------|-------------------|-----------------|-----------------|
A|-3---------------|-------------------|-----------------|-3---------------|
E|---------------0-|-----0---------7---|-----7-----------|-----------------|

e|-----------8-7-7-|-----------8-7-7/5-|-------------8-7-|-7/5-------------|
B|-8-8-8-8-8-------|-8-8-8-8-8---------|-5h7-7-7-7-7-----|-----------------|
G|-----------------|-------------------|-----------------|-----------------|
D|-----------------|-------------------|-----------------|-----------------|
A|-3---------------|-------------------|-----------------|-3---------------|
E|---------------0-|-----0---------7---|-----7-----------|-----------------|

e|-0---0---0-------|-0---0---0-------|-----------------|-----------------|
B|-----------3-0---|-----------3-0---|-3-------3-3-1-0-|-----------------|
G|-----------------|-----------------|-----------------|-0---------------|
D|-----------------|-----------------|-0---------------|-2---------------|
A|-----------------|-----------------|-----------------|-3---------------|
E|-0---------------|-3---------------|-----------------|-----------------|


[Chorus]

   1 + 2 + 3 + 4 +   1 + 2 + 3 + 4 +   1 + 2 + 3 + 4 +   1 + 2 + 3 + 4 +   1 + 2 + 3 + 4 +

e|-------8-8-8-8-8-|-8-----7-7-------|-------5-8-7-5---|-8-----7-7-------|-5-5-8-7-5-3-----|
B|-----------------|-----------------|---------------8-|---------8-------|-----------------|
G|-----------------|-----------------|-----------------|---------9-------|-----------------|
D|-----------------|-----------------|-----------------|---------9-------|-----------------|
A|-----------------|-----------------|-5---------------|-7-------7-------|-3---------------|
E|-----------------|-3---------------|-----------------|-----------------|-----------------|

e|-8---7---7-------|-----5-5-8-7-5---|-----------8-7-5-|-8---------------|--------8-7-5-8--|
B|-----------------|---------------8-|-8-------8-------|---------------8-|-8----8----------|
G|-----------------|-----------------|-----------------|-----------------|-----------------|
D|-----------------|-----------------|-----------------|-----------------|-----------------|
A|-----------------|-5---------------|-7---------------|-3---------------|-7------------3--|
E|-3---------------|-----------------|-----------------|-----------------|-----------------|            
Submit corrections


        Wrecking Ball lessons Hard to play? Try these video lessons and learn fast Wrecking Ball lessons
        
↑ Back to top | Tablatures and chords for acoustic guitar and electric guitar, ukulele, drums are parodies/interpretations of the original songs. You may use it for private study, scholarship, research or language learning purposes only