» » »

Miley Cyrus - Wrecking Ball Bass

Artists:  A B C D E F G H I J K L M N O P Q R S T U V W X Y Z # 

Wrecking Ball Bass

(ver. 1) Click to play this song!
Miley Cyrus
 Rating:
4/5 (4 votes)

 Wrecking Ball lessons Tabs too difficult? Try these video lessons and learn fast
 
                Hey Guys! This is the first time I've written a tab so let me know what you think!



Intro/Verse 0:00
                                                                           x3
G|---------------------------------------------------------------------------|
D|0-0-0-0-0-0-0-0------------------------------------------------------------|
A|--------------------------------3-3-3-3-3-3-3-3-1-1-1-1-1-1-1-1------------|
E|----------------1-1-1-1-1-1-1-1--------------------------------------------|


Pre-Chorus 0:24


G|---------------------------------------------------------------------------|
D|----------------0-0-0-0-0-0-0-0--------------------------------------------|
A|1-1-1-1-1-1-1-1---------------------------------1-1-1-1-1-1-1-1------------|
E|--------------------------------1-1-1-1-1-1-1-1----------------------------|

G|---------------------------------------------------------------------------|
D|----------------0-0-0-0-0-0-0-0--------------------------------------------|
A|1-1-1-1-1-1-1-1---------------------------------1-(ring)-------------------|
E|--------------------------------1-1-1-1-1-1-1-1----------------------------|


Chorus 0:41


G|---------------------------------------------------------------------------|
D|-------------------0--00--0------------------------0--00--0----------------|
A|---------3--33--3-----------1--11--1-------3--33--3---------1--11--1-------|
E|1--11--1----------------------------1--11-1--------------------------------|

G|---------------------------------------------------------------------------|
D|0--00--0-------------------------------------------------------------------|
A|---------1--11--1----------------------------------------------------------|
E|---------------------------------------------------------------------------|


Verse 2  1:01

                                                                          x2
G|---------------------------------------------------------------------------|
D|0-0-0-0-0-0-0-0------------------------------------------------------------|
A|--------------------------------3-3-3-3-3-3-3-3-1-1-1-1-1-1-1-1------------|
E|----------------1-1-1-1-1-1-1-1--------------------------------------------|

Pre-Chorus 1:18

                                                                           x2
G|---------------------------------------------------------------------------|
D|----------------0-0-0-0-0-0-0-0--------------------------------------------|
A|1-1-1-1-1-1-1-1---------------------------------1-1-1-1-1-1-1-1------------|
E|--------------------------------1-1-1-1-1-1-1-1----------------------------|

G|---------------------------------------------------------------------------|
D|----------------0-0-0-0-0-0-0-0--------------------------------------------|
A|1-1-1-1-1-1-1-1---------------------------------1-(ring)-------------------|
E|--------------------------------1-1-1-1-1-1-1-1----------------------------|


Chorus 1:33


G|---------------------------------------------------------------------------|
D|-------------------0--00--0-------------------------0--00--0---------------|
A|---------3--33--3-----------1--11--1-------3--33--3----------1--11--1------|
E|1--11--1----------------------------1--11-1--------------------------------|

G|---------------------------------------------------------------------------|
D|-------------------0--00--0------------------------0--00--0----------------|
A|---------3--33--3-----------1--11--1-------3--33--3---------1--11--1-------|
E|1--11--1----------------------------1--11-1--------------------------------|

G|---------------------------------------------------------------------------|
D|0--00--0-------------------------------------------------------------------|
A|---------1--11--1----------------------------------------------------------|
E|---------------------------------------------------------------------------|


Bridge  2:10

                                                                           x2
G|---------------------------------------------------------------------------|
D|0-(ring)-------------------------------------------------------------------|
A|----------------------------------3-(ring)------------1-(ring)-------------|
E|----------------1-(ring)---------------------------------------------------|


No Bass  2:42



Chorus  2:51


G|---------------------------------------------------------------------------|
D|-------------------0--00--0------------------------0--00--0----------------|
A|---------3--33--3-----------1--11--1-------3--33--3---------1--11--1-------|
E|1--11--1----------------------------1--11-1--------------------------------|

G|---------------------------------------------------------------------------|
D|-------------------0--00--0------------------------0--00--0----------------|
A|---------3--33--3-----------1--11--1-------3--33--3---------1--11--1-------|
E|1--11--1----------------------------1--11-1--------------------------------|

G|---------------------------------------------------------------------------|
D|-------------------0--00--0------------------------0--00--0----------------|
A|---------3--33--3-----------1--11--1-------3--33--3---------1--11--1-------|
E|1--11--1----------------------------1--11-1--------------------------------|

G|---------------------------------------------------------------------------|
D|-------------------0--00--0------------------------0--00--0----------------|
A|---------3--33--3-----------1--11--1-------3--33--3---------1--11--1-------|
E|1--11--1----------------------------1--11-1--------------------------------|

G|---------------------------------------------------------------------------|
D|0--00--0----------0--00-0--------------------------------------------------|
A|---------1--11--1---------1-(ring)-----------------------------------------|
E|---------------------------------------------------------------------------|


| /  slide up
| \  slide down
| h  hammer-on
| p  pull-off
| ~  vibrato
| +  harmonic
| x  Mute note
            
Submit corrections


        Wrecking Ball lessons Hard to play? Try these video lessons and learn fast Wrecking Ball lessons
        
↑ Back to top | Tablatures and chords for acoustic guitar and electric guitar, ukulele, drums are parodies/interpretations of the original songs. You may use it for private study, scholarship, research or language learning purposes only