» » »

Miley Cyrus - See You Again Tabs

Artists:  A B C D E F G H I J K L M N O P Q R S T U V W X Y Z # 

See You Again Tabs

(ver. 1) Click to play this song!
Miley Cyrus
 Rating:
4/5 (4 votes)

 See You Again lessons Tabs too difficult? Try these video lessons and learn fast
 
                Ok so I just figured this out by ear, it may not be 100% correct but it works with the
and the original song. Also I didn't mark where to palm mute but I think you do it in the
if you want to. If you plan on singing with this tab, you should print out the lyrics 
the lyrics here are only a guide. I've lined up the lyrics with the tab. Enjoy!

0 = open
... = more lyrics in between

Verse 1
E--------------------------------------------------------------------|
B--------------------------------------------------------------------|
G--------------------------------------------------------------------|
D--------------------------------------------------------------------|
A-00000000000000000000000000000000-0000000000000000-3333333333333333-|
E--------------------------------------------------------------------|

  I've got my sights set on you...                  never be tame...

E--------------------------------------------------------------------|
B--------------------------------------------------------------------|
G--------------------------------------------------------------------|
D-2222222222222222---------------------------------------------------|
A------------------0000000000000000-33333333--------0000000000000000-|
E--------------------------------------------0000000-----------------|


  I knew you...     when you...      now I...wait...again

**Verse 2 is the same thing as Verse 1 but with different lyrics.

Chorus
E-------------------------------------------------------|
B-------------------------------------------------------|
G-------------------------------------------------------|
D-55555555----------------------55555555----------------|
A-33333333-------55555555-------33333333-------55555555-|
E----------------33333333----------------------33333333-|

  The last...    I just kept... I st-st...     Asked me...

**For the next 4 lines (until she says "Miley") repeat the above part.

E-------------------------------------------------------|
B-------------------------------------------------------|
G-------------------------------------------------------|
D-22222222-55555555----------22222222-55555555----------|
A-00000000-33333333-55555555-00000000-33333333-22222222-|
E-------------------33333333-------------------00000000-|

  The next...I will...My heart...then...I I can't...wait...

Transition
E-------------------|
B-------------------|
G-------------------|
D-------------------|
A-00000000-00000000-|
E-------------------|

**This is in between the ending of the 1st chorus and the beginning of the third verse.

**Verse 3 is the same as Verse 1 and 2
**Then play chorus again with transition afterwards

E---------------------------------|
B---------------------------------|
G---------------------------------|
D---------------------------------|
A-3-2---0-3-2---0-3-2---0-3-2---0-|
E-----3-------3-------3-------3---|

  I've got my sights set on you and I'm ready to aim

**Play chorus normally except for first 4 lines, which you play like this:

E
B
G
D-5--------------------------------------5---------------------------|
A-3------------------5-------------------3-----------------5-------5-|
E--------------------3-------------------------------------3-------3-|

  The last time...   I just kept...      I st-st...        Asked me...

**Then continue chorus normally :)

***Hope this helps!***
            
Submit corrections


        See You Again lessons Hard to play? Try these video lessons and learn fast See You Again lessons
        
↑ Back to top | Tablatures and chords for acoustic guitar and electric guitar, ukulele, drums are parodies/interpretations of the original songs. You may use it for private study, scholarship, research or language learning purposes only