» » »

Miley Cyrus - Malibu Tabs

Artists:  A B C D E F G H I J K L M N O P Q R S T U V W X Y Z # 

Malibu Tabs

(ver. 1) Click to play this song!
Miley Cyrus
 Rating:
4.3/5 (10 votes)

 Malibu  lessons Tabs too difficult? Try these video lessons and learn fast
 
                [Verse 1]

e|----------------------------|---------------------------------|
B|----------------------------|---4-4-4---4-6-6-4---4-4-4---4-6-|
G|-3-5-5-5--5-5-5---6-6-5-5-5-|-5-------5---------5-------5-----|
D|----------------6-----------|---------------------------------|
A|----------------------------|---------------------------------|
E|----------------------------|---------------------------------|
I never came to the beach or stood by the ocean
I never sat by the shore under the sun with my feet in the sand

e|-------------------------|-----------------------|
B|-6-6-4---------------4---|-----------------------|
G|-------5-5-----6-6-6---5-|---6-6-5-5-----3-3-----|
D|-----------6-6-----------|-6---------6-6-----6-6-|
A|-------------------------|-----------------------|
E|-------------------------|-----------------------|
But you brought me here and I'm happy that you did
'Cause now I'm as free as birds catching the wind

e|----------------------------|--------------------|---------------|-----------|
B|----------------------------|--4-4-4---4-6-------|-4-4-4-4---4-6-|-6-4-------|
G|-3-5-5-5--5-5-5---6-6---5-5-|5-------5-------6-6-|---------5-----|-----6-5-5-|
D|----------------------6-----|--------------------|---------------|-----------|
A|----------------------------|--------------------|---------------|-----------|
E|----------------------------|--------------------|---------------|-----------|
I always thought I would sink, so I never swam
I never went boatin', don't get how they are floatin'
And sometimes I get so scared
Of what I can't understand

[Chorus 1]

e|-----------------------|----------------|----------------|
B|-----------4-----------|------------4---|------------4---|
G|-----5-5-3---5---------|----------3---5-|----------3---5-|
D|-6-6-----------6-8-6-6-|-6-8-6-6--------|-6-8-6-6--------|
A|-----------------------|----------------|----------------|
E|-----------------------|----------------|----------------|
But here I am, next to you, the sky's more blue
In Malibu, next to you
In Malibu, next to you

[Verse 2]

e|------------------------|-----------------------------|
B|------------------------|---4-4-4---4-6-6-4---4-4-----|
G|-3-5-5-5--5-5-5-6-6-5-5-|-5-------5---------5-----5-5-|
D|------------------------|-----------------------------|
A|------------------------|-----------------------------|
E|------------------------|-----------------------------|
We watched the sun go down as we were walking
I'd spend the rest of my life just standing here talking

e|------------------------|---------------------------|
B|------------------------|-4-4-4-4-------------4-4-4-|
G|-3-5-5-5--5-5-5-6-6-5-5-|---------5-------6-6-------|
D|------------------------|-----------4-6-6-----------|
A|------------------------|---------------------------|
E|------------------------|---------------------------|
You would explain the current as I just smile
Hoping that you'll stay the same and nothing will change
e|-----------------|---------------|-----------|-------------|
B|-4---4-6-6-------|-----------4---|-----------|-------------|
G|---5-------6-5-5-|-----6-6-6---5-|---6-6-5-5-|-------------|
D|-----------------|-6-6-----------|-6---------|-6-6-8-8-6-6-|
A|-----------------|---------------|-----------|-------------|
E|-----------------|---------------|-----------|-------------|
And it'll be us just for a while
Do they even exist?
That's when I make the wish
To swim away with the fish

e|----------------------------|-----------------|---------------|---------------|
B|----------------------------|---4-4-4---4-6-6-|-----4-4-4-4---|---4-6-6-------|
G|-3-5-5-5--5-5-5---6-6-5-5-5-|-5-------5-------|-6-6---------5-|-5---------5-5-|
D|----------------6-----------|-----------------|---------------|---------------|
A|----------------------------|-----------------|---------------|---------------|
E|----------------------------|-----------------|---------------|---------------|
Is it supposed to be this hot all summer long?
I never would've believed you
If three years ago you told me
I'd be here writing this song

[Chorus 2]

e|-----------------------|---------------|---------------|
B|-----------------------|-----------4---|-----------4---|
G|-3-3-5-5-3-5-5-3-3-5-5-|---------3---5-|---------3---5-|
D|-----------------------|-6-8-6-6-------|-6-8-6-6-------|
A|-----------------------|---------------|---------------|
E|-----------------------|---------------|---------------|

[Bridge]

e|---------|-------------------|---------|-----------|-------------------|---------|
B|---------|-----4---4-6-4-----|-6-4-----|-----------|-----4---4-6-4-----|-6-4-----|
G|-5-3-5-6-|-5-6---5-------6-5-|-----6-5-|-3-5-3-5-6-|-5-6---5-------6-5-|-----6-5-|
D|---------|-------------------|---------|-----------|-------------------|---------|
A|---------|-------------------|---------|-----------|-------------------|---------|
E|---------|-------------------|---------|-----------|-------------------|---------|

[Chorus 3]
e|-------------|------------------|
B|---------4---|--------------4---|
G|-3-5-5-3---5-|------------3---5-|
D|-------------|-6-8-6-6----------|
A|-------------|------------------|
E|-------------|------------------|

[Verse 3] 
e|--------------------------|------------------------------|
B|----------------------4---|-4-4-4-4---4-6-6-4-4-4--4-4-4-|
G|-5-5-5--5-5-5-5---6-6---5-|---------5--------------------|
D|----------------6---------|------------------------------|
A|--------------------------|------------------------------|
E|--------------------------|------------------------------|

e|-----------------------|-------------------|---------|
B|-4-4---4-6-6-6-6-4-----|-----4---------4---|---------|
G|-----5-------------6-5-|---6---6-5---6---5-|---------|
D|-----------------------|-6---------6-------|-6-8-6-6-|
A|-----------------------|-------------------|---------|
E|-----------------------|-------------------|---------|


************************************            
Submit corrections


        Malibu  lessons Hard to play? Try these video lessons and learn fast Malibu  lessons
        
↑ Back to top | Tablatures and chords for acoustic guitar and electric guitar, ukulele, drums are parodies/interpretations of the original songs. You may use it for private study, scholarship, research or language learning purposes only