» » »

Miley Cyrus - Malibu Bass

Artists:  A B C D E F G H I J K L M N O P Q R S T U V W X Y Z # 

Malibu Bass

(ver. 1) Click to play this song!
Miley Cyrus
 Rating:
4.3/5 (12 votes)

 Malibu  lessons Tabs too difficult? Try these video lessons and learn fast
 
                [Verse]
(0:20)
G|----------|----------|----------|----------|----------|----------|-------------|-------------|
D|-6--------|-6--------|-6--------|-6--------|-6--------|-6--------|-10----11----|-10----11----|
A|----------|----------|----------|----------|----------|----------|-------------|-------------|
E|----------|----------|----------|----------|----------|----------|-------------|-------------|

[Chorus]
(1:00)
G|-------------|----------|-----------|-----------|
D|-------------|----------|-----------|-----------|
A|------8------|----------|-----------|-----------|
E|-8-10--------|-6--------|-4---------|-8---------| (x2)

[Verse]
(1:43)
G|----------|----------|----------|----------|----------|----------|-----------|-----------|
D|-6--------|-6--------|-6--------|-6--------|-6--------|-6--------|-----------|-----------|
A|----------|----------|----------|----------|----------|----------|-----------|-----------|
E|----------|----------|---------------------|---------------------|-8----9----|-8----9----|

[Chorus]
(2:10)
G|-------------|----------|----------|----------|----------|----------|----------|----------|
D|-------------|----------|----------|----------|----------|----------|----------|----------|
A|----8--------|----------|----------|----------|-8--------|----------|----------|----------|
E|-10----------|-6--------|-4--------|-8--------|----------|-6--------|-4--------|-8--------|

G|-------------|----------|-----------|-----------|
D|-------------|----------|-----------|-----------|
A|------8------|----------|-----------|-----------|
E|-8-10--------|-6--------|-4---------|-8---------| (x2)

[Bridge]
(2:51)
G|----------------|---------------|-----------|------------|
D|----------------|---------------|-----------|------------|
A|----------------|---------------|-----------|------------|
E|-13\1-1----1-1/-|-6-6----6-6-6\-|-4-4---4-4-|-8-8----8-8-|

G|----------------|---------------|-----------|------------|
D|----------------|---------------|-----------|------------|
A|----------------|---------------|-----------|------------|
E|--8\1-1----1-1/-|-6-6----6-6-6\-|-4-4---4-4-|-8---8---8--|

[Chorus]
(3:04)
G|------------------|-------------|-------------|-------------|
D|------------------|-------------|-------------|-------------|
A|------8---8---8-8-|-------------|-------------|-------------|
E|-8-10-------------|-6---6---6-6-|-4---4---4-4-|-8---8---8---|

G|------------------|-------------|-------------|-------------|
D|------------------|-------------|-------------|-------------|
A|------8---8---8-8-|-------------|-------------|-------------|
E|-8-10-------------|-6---6---6-6-|-4---4---4-4-|-8---8---8-8-|
            
Submit corrections


        Malibu  lessons Hard to play? Try these video lessons and learn fast Malibu  lessons
        
↑ Back to top | Tablatures and chords for acoustic guitar and electric guitar, ukulele, drums are parodies/interpretations of the original songs. You may use it for private study, scholarship, research or language learning purposes only