» » »

Miley Cyrus - Girls Just Wanna Have Fun Tabs

Artists:  A B C D E F G H I J K L M N O P Q R S T U V W X Y Z # 

Girls Just Wanna Have Fun Tabs

(ver. 2) Click to play this song!
Miley Cyrus
 Rating:
4/5 (4 votes)

 Girls Just Wanna Have Fun lessons Tabs too difficult? Try these video lessons and learn fast
 
                Miley Cyrus - Girls Just Wanna Have Fun
---------------------------------------

Ok, I've written some tabs for 'Girls Just Wanna Have Fun' from Miley's
new album 'Breakout'. This is a quite simple and easy to play version of it.
Have fun ;)


### INTRO ### 00:00 ###
e|--------------------------------------|
B|--------------------------------------|
G|--777777777-7-6-5-4-4444444444444444--|
D|--777777777-7-6-5-4-4444444444444444--|
A|--555555555-5-4-3-2-2222222222222222--|
E|--------------------------------------|
pm____________^^^^^^^___________________  ^ = w/o pm    


### MELODY ### 00:06 ###
E|-------------------------|-------------------------|
B|--/8-7---7----8-7---7----|--/8-7---7----8-7--------|
G|-------9----------9---9--|-------9----------9-7-9--|
D|-------------------------|-------------------------| 2x
A|-------------------------|-------------------------|
E|-------------------------|-------------------------|


### VERSE 1 ### 00:19 ###
e|----------------------------------------------------------|
B|----------------------------------------------------------|
G|--7--77777777777-7--4--44444444444-4----------------------|
D|--7--77777777777-7--4--44444444444-4--5--555555555555555--|
A|--5--55555555555-5--2--22222222222-2--5--555555555555555--|
E|--------------------------------------3--333333333333333--|
pm__^______________^__^______________^__^___________________


e|-----------------------------------|
B|-----------------------------------|
G|-----------------------------------|
D|--9--99-777-5--5555555--9--99-777--|
A|--9--99-777-5--5555555--9--99-777--|
E|--7--77-555-3--3333333--7--77-555--|
pm__^^^^^^^^^^^^^_______^^^^^^^^^^^__


### MELODY ### 00:34 ###
E|-------------------------|-------------------------|
B|--/8-7---7----8-7---7----|--/8-7---7----8-7--------|
G|-------9----------9---9--|-------9----------9-7-9--|
D|-------------------------|-------------------------|
A|-------------------------|-------------------------|
E|-------------------------|-------------------------|


### VERSE 2 ### 00:40 ###
e|-------------------|------------------|-------------------|
B|-------------------|------------------|-------------------|
G|--7-7-7-7-7-7-7-77-|-4-4-4-4-4-4-4-44-|-------------------|
D|--7-7-7-7-7-7-7-77-|-4-4-4-4-4-4-4-44-|-5-5-5-5-5-5-5-55--|
A|--5-5-5-5-5-5-5-55-|-2-2-2-2-2-2-2-22-|-5-5-5-5-5-5-5-55--|
E|-------------------|------------------|-3-3-3-3-3-3-3-33--|

e|-----------------------------------|
B|-----------------------------------|
G|-----------------------------------|
D|--9--99-777-5--5555555--9--99-777--|
A|--9--99-777-5--5555555--9--99-777--|
E|--7--77-555-3--3333333--7--77-555--|
pm__^^^^^^^^^^^^^_______^^^^^^^^^^^__


### PRE-CHORUS ### 00:54 ###
e|---------------------------------------------------------------------|
B|---------------------------------------------------------------------|
G|--7--------4--------7------------------------------------------------|
D|--7-(16x)--4-(16x)--7-(8x)--9-------9--99-777-5--5555555--9--99-777--|
A|--5--------2--------5-------9-(8x)--9--99-777-5--5555555--9--99-777--|
E|----------------------------7-------7--77-555-3--3333333--7--77-555--|


### CHORUS 1 ### 01:08 ###
e|---------------------------------------|
B|---------------------------------------| just bring some rhythm
G|--7-----4-----7-----4-----7-----4------| in there by using some
D|--7-...-4-...-7-...-4-...-7-...-4-...--| palm muting and stuff..
A|--5-----2-----5-----2-----5-----2------|
E|---------------------------------------|



### VERSE 2 ### 01:28 ###

### PRE-CHORUS ### 01:42 ###



### CHORUS 2 ### 01:57 ###
e|----------------------|------------------------|-------------------------|
B|----------------------|-/8-7---7----8-7---7----|--/8-7---7----8-7--------|
G|--7----4----7----4----|------9----------9---9--|-------9----------9-7-9--|
D|--7-..-4-..-7-..-4-..-|------------------------|-------------------------|
A|--5----2----5----2----|------------------------|-------------------------|
E|----------------------|------------------------|-------------------------|



### PRE-CHORUS ### 02:16 ###

### CHORUS 1 ### 02:30 ###  (fade out)
            
Submit corrections


        Girls Just Wanna Have Fun lessons Hard to play? Try these video lessons and learn fast Girls Just Wanna Have Fun lessons
        
↑ Back to top | Tablatures and chords for acoustic guitar and electric guitar, ukulele, drums are parodies/interpretations of the original songs. You may use it for private study, scholarship, research or language learning purposes only