» » »

Miley Cyrus - Butterfly Fly Away Tabs

Artists:  A B C D E F G H I J K L M N O P Q R S T U V W X Y Z # 

Butterfly Fly Away Tabs

(ver. 3) Click to play this song!
Miley Cyrus
 Rating:
3.4/5 (9 votes)

 Butterfly Fly Away lessons Tabs too difficult? Try these video lessons and learn fast
 
                Butterfly Fly Away - Miley Cyrus
Hannah Montana Movie Soundtrack

Capo on 4

This song is off the new sountrack for the Hannah Montana movie and it's pretty 
simple! Alot of repeating the same few chords.
This is a video of Miley playing it acoustically.
This video also helps show the strumming!

Intro
e|---3--3--3--3---------|
B|---3--3--3--3---------|    
G|---0--0--0--0---------|x2
D|---2--0--2--0---------|
A|---3--2--0--2---------|
E|---0--0--0--0---------|

Verse 1 + 2
e|---3--3--3--3---------|
B|---3--3--3--3---------|    
G|---0--0--0--0---------|x4
D|---2--0--2--0---------|
A|---3--2--0--2---------|
E|---0--0--0--0---------|

Verse 1:
You tucked me in, turned out the light 
kept me safe and sound at night 
Little girls depend on things like that 

Verse 2:
Brushed my teeth and combed my hair 
Had to drive me everywhere 
You were always there when I looked back 

Bridge
e|---3--3--3--3---------|
B|---3--3--3--3---------|    
G|---0--0--0--0---------|x4
D|---2--0--2--0---------|
A|---3--2--0--2---------|
E|---0--0--0--0---------|

Bridge:
You had to do it all alone 
Make a living, make a home 
Must've been as hard as it could be 

And when I couldn't sleep at night 
Scared things wouldn't turn out right 
You would hold my hand and sing to me

Chorus
e|---3--3--3--3--3--3--3--3----|
B|---3--3--3--3--3--3--3--3----|
G|---0--0--0--0--0--0--0--1----|x2
D|---0--2--0--0--0--0--2--0----|
A|---2--3--2--0--2--2--0--0----|
E|---3--0--3--2--0--0--0--0----|

Chorus:
Caterpillar in the tree 
How you wonder who you'll be 
Can't go far but you can always dream 

Wish you may and wish you might 
Don't you worry, hold on tight 
I promise you there will come a day 
Butterfly fly away 

Verse 3 + 4
e|---3--3--3--3---------|
B|---3--3--3--3---------|    
G|---0--0--0--0---------|x5
D|---2--0--2--0---------|
A|---3--2--0--2---------|
E|---0--0--0--0---------|

Verse 3:
Butterfly fly away (Butterfly fly away) 
Got your wings, now you can't stay 
Take those dreams and make them all come true 

Verse 4:
Butterfly fly away(Butterfly fly away) 
You've been waiting for this day 
All along and know just what to do 

Outro
e|---3--3--3--3---------|
B|---3--3--3--3---------|    
G|---0--0--0--0---------| Play till the end. End on ---3---
D|---2--0--2--0---------|                           ---3---  
A|---3--2--0--2---------|                           ---0---
E|---0--0--0--0---------|                           ---2---
                                                    ---3---
Outro:                                              ---0---
Butterfly, Butterfly, Butterfly 
Butterfly fly away 

Butterfly fly away 

Butterfly fly away
            
Submit corrections


        Butterfly Fly Away lessons Hard to play? Try these video lessons and learn fast Butterfly Fly Away lessons
        
↑ Back to top | Tablatures and chords for acoustic guitar and electric guitar, ukulele, drums are parodies/interpretations of the original songs. You may use it for private study, scholarship, research or language learning purposes only