» » »

Miley Cyrus - 7 Things Bass

Artists:  A B C D E F G H I J K L M N O P Q R S T U V W X Y Z # 

7 Things Bass

(ver. 1) Click to play this song!
Miley Cyrus
 Rating:
4/5 (4 votes)

 7 Things lessons Tabs too difficult? Try these video lessons and learn fast
 
                
Tuning:EADG

Verse:
G|-------------------------------------------------------------------------|
D|-------------------------------------------------------------------------|
A|------------1/7----6----4----2--------------4-------4-----------4--------|
E|--00---00-------------------------5----7--------------5----7-------------|


Chorus 1:
G|--------------------------------------------------------------------|
D|--------------------------------------------------------------------|
A|--7--6--4--2------------7--6--4--2------------7--6--4--2------------|
E|--------------5----7----------------5----7----------------5----7----|


G|--------------------------------------|
D|--------------------------------------|
A|--------------------------------------|
E|--4----5----7-7-7-7-7-7-7-7-7-7-7-7-7-|


Verse:
G|--------------------------------------------------------------------------|
D|--------------------------------------------------------------------------|
A|------------1/7----6----4----2--------------4--------------------4--------|
E|--00---00-------------------------5----7-----------2-4-5----7-------------|


Chorus 2:
G|--------------------------------------------------------------------------|
D|--------------------------------------------------------------------------|
A|--7--6--4--2------------7--6--4--2----------------------------------------|
E|--------------5----7----------------5----7----4----5----7-7-7-7-7-7-7-7-7-|



Break:
G|------------|
D|------------|
A|------------|
E|--00---00---|


Chorus 2:
G|-----------------------------------------------------------------------------------|
D|-----------------------------------------------------------------------------------|
A|--7--6--4--2------------7--6--4--2-------------------------------------------------|
E|--------------5----7----------------5----7----4----5----7-7-7-7-7-7-7-7-7-7-7-7-7--|


Outro:
G|---------------------------------------------------------------------|
D|---------------------------------------------------------------------|
A|----------------------------------44---44-----------------44---44----|
E|--00---00---00---00--24-55---77-------------2-4-55---77--------------|


*Note*:Sorry, I didn't tab the 2nd verse right, but it's fixed now.

END
            
Submit corrections


        7 Things lessons Hard to play? Try these video lessons and learn fast 7 Things lessons
        
↑ Back to top | Tablatures and chords for acoustic guitar and electric guitar, ukulele, drums are parodies/interpretations of the original songs. You may use it for private study, scholarship, research or language learning purposes only