Home » M » Miles Davis »

Miles Davis - So What Tabs

Artists:  A B C D E F G H I J K L M N O P Q R S T U V W X Y Z # 

So What Tabs

(ver. 3) Click to play this song!
Miles Davis
[Riff]

fret
finger  1 3 1/ 3 1 1 3         1 3 1/ 3 1 1 3 3         1 3 1/ 3 1 1 3         1/ 1/ 1/ 33
e|-----------------7-5----------------------7-5--------------------7-5----------------7-5--------| 
B|---------------5-------8-6------------5---------8-6------------5-------8-6---45-45-45-----8-6--|
G|----------45-7---5-7---7-5-------45-7---5-7-----7-5-------45-7---5-7---7-5------------7---7-5--|x2
D|--------7--------------7-5-----7------------7---7-5-----7--------------7-5--------------7-7-5--|
A|------5----------------7-5---5------------------7-5---5----------------7-5----------------7-5--|
E|-----------------------------------------------------------------------------------------------|

  1 3 1/ 3 1 1 3         1 3 1/ 3 1 1 3 3          1 3 1/ 3 1 1 3        1/ 1/ 3 3 1 3 3
e|-----------------8-6----------------------8-6--------------------8-6---------------------8-6-|
B|---------6-------9-7------------6---------9-7------------6-------9-7---56-56-----6-------9-7-|
G|----56-8---6-8---8-6-------56-8---6-8-----8-6-------56-8---6-8---8-6---------8-----8-----8-6-|
D|--8--------------8-6-----8------------8---8-6-----8--------------8-6-----------8-----8---8-6-|
A|6----------------8-6---6------------------8-6---6----------------8-6---------------------8-6-|
E|---------------------------------------------------------------------------------------------|

  1 3 1/ 3 1 1 3         1 3 1/ 3 1 1 3 3         1 3 1/ 3 1 1 3       1/ 3 3 1/ 3 3
e|-----------------7-5-------------------------------------------7-5-------------------7-5--|
B|---------5-------8-6------------5----------------------5-------8-6---45-----45-------8-6--|
G|----45-7---5-7---7-5-------45-7---5-7-------------45-7---5-7---7-5------7------7-----7-5--|
D|--7--------------7-5-----7------------7---------7--------------7-5--------7------7---7-5--|
A|5----------------7-5---5----------------------5----------------7-5-------------------7-5--|
E|------------------------------------------------------------------------------------------|

e|-45-45-45-------8-6-|
B|----------7-----7-5-|
G|------------7---7-5-|
D|----------------7-5-|
A|--------------------|
E|--------------------|            
Submit corrections

↑ Back to top | Tablatures and chords for acoustic guitar and electric guitar, ukulele, drums are parodies/interpretations of the original songs. You may use it for private study, scholarship, research or language learning purposes only