» » »

Mike Posner - Please Dont Go Tabs

Artists:  A B C D E F G H I J K L M N O P Q R S T U V W X Y Z # 

Please Dont Go Tabs

(ver. 1) Click to play this song!
Mike Posner
 Rating:
4/5 (4 votes)

 Please Dont Go lessons Tabs too difficult? Try these video lessons and learn fast
 
                Please Don't Go/Olive You/With or Without You


Video of me singing/playing it here:

Tuning: D A D G A D

   x = mute
   / = slide
 < > = harmonics

Intro/Verse:
-----------------0------------------|
---------0--------------------0-----|
-------0-----0--------0-----0-------|
-----0---------0----------2---------|
-----------5-------/7---3-----------|
---5--------------------------------|

Pre-Chourus:
--0---0---0---0---0---0---0---0---0---|
--0---0---0---0---0---0---0---0---0---|
--0---0---0---0---0---0---0---0---0---|
--x---0---4---2---x---0---4---5---2---|
--5---2---2---3---5---2---2---7---3---|
--5---2-----------5---2---------------|

Chorus:
--0---0---0---0---0---0---0---0--|
--0---0---0---0---0---0---0---0--|
--0---0---0---0---0---0---0---0--|
--x---4---2---0---x---4---5---2--|
--5---2---3---2/--5---2---7---3--|
--5-----------2/--5--------------|

Bridge:
-----------------0--0-------0--0---0---0--0---0---0--0----0--|
-------<12>--0---0--0---0---0--0---0---0--0---0---0--0----0--|
--<12>-------0---0--0---0---0--0---0---0--0---0---0--0----0--|
-------------0---0--4---0---0--4---0---0--4---0---x--4/---7--|
-------------2/--5--2---2/--5--2---2/--5--2---2/--5--2/---5--|
-------------2/--5------2/--5------2/--5------2/--5----------|

Outro:
-----------------------------------------------------------|
-----------------------------------------------------------|
-----------------------------------------------------------|
----0---0---0---0---0---0---0---0---0---0---0---0---0---0--|
-----------------------------------------------------------|
--5---5---5---5---4---4---4---4---2---2---2---2---0---0----|

----------0------------------------------------------------|
--------------------------0--------------------------------|
------------------------------------0---------------0------|
----0---0---0---0---0---0---0---0-------0---0---0-------0--|
-----------------------------------------------------------|
--0---0---5---5---5---5---4---4---4---4---2---2---2---2----|

----------------------------------|
----------0-----------------------|
------------0------0---5---4--0---|
----0---0--------0---0---0----0---|
------------------------------x---|
--0---0--------5--------------5---|

Congrats you've learned my first medley cover. :)
            
Submit corrections


        Please Dont Go lessons Hard to play? Try these video lessons and learn fast Please Dont Go lessons
        
↑ Back to top | Tablatures and chords for acoustic guitar and electric guitar, ukulele, drums are parodies/interpretations of the original songs. You may use it for private study, scholarship, research or language learning purposes only