» » »

Mike Posner - Buried In Detroit Tabs

Artists:  A B C D E F G H I J K L M N O P Q R S T U V W X Y Z # 

Buried In Detroit Tabs

(ver. 2) Click to play this song!
Mike Posner
 Rating:
4.3/5 (23 votes)

 Buried In Detroit  lessons Tabs too difficult? Try these video lessons and learn fast
 
                Riff played during the entire song:

     Em                         Am7           G    
E||--------0------------------|-------0-------------------||
B||-------------0-------------|------------1-------0------||
G||------0------------0-------|-----0------------0--------||
D||--0h2----------------------|---------------------------|| (repeat as needed)
A||---------------------------|--0------------------------||
E||---------------------------|---------------3-----------||


In chorus 2 there enters another guitar. 
This part is those two merged together for one playable guitar part

   Em                            Am7             G
E||--------0-------------------|---------0--------------------||
B||-------------0--------0--1--|--1h3---------1--3------------||
G||------0------------0--------|-------0---------4----4----5--||
D||--0h2-----------------------|--------------------5---------||
A||----------------------------|--0---------------------------||
E||----------------------------|-----------------3------------||
            
Submit corrections


        Buried In Detroit  lessons Hard to play? Try these video lessons and learn fast Buried In Detroit  lessons
        
↑ Back to top | Tablatures and chords for acoustic guitar and electric guitar, ukulele, drums are parodies/interpretations of the original songs. You may use it for private study, scholarship, research or language learning purposes only