» » »

Michael Jackson - Smooth Criminal Tabs

Artists:  A B C D E F G H I J K L M N O P Q R S T U V W X Y Z # 

Smooth Criminal Tabs

(ver. 3) Click to play this song!
Michael Jackson
 Rating:
4/5 (4 votes)

 Smooth Criminal lessons Tabs too difficult? Try these video lessons and learn fast
 
                refrain
e--------------------------------------------------------|
a--------------------------------------------------------|
d--------------------------------------------------------|     2x
g--------------------------------------------------------|
b--7-7-7-7-7-9-9--9-10-10--10-9-5-7----------------------|
e--5-5-5-5-5-7-7--7--8--8--8--7-3-5----------------------|


e--------------------------------------------------|
a--------------------------------------------------|
d--------------------------------------------------|
g--------------------------------------------------|
b--7-7-7-7-7-9-9--9-10-10--10-9-5------------------|
e--5-5-5-5-5-7-7--7--8--8--8--7-3------------------|


e--------------------------------------------------|
a--------------------------------------------------|
d--------------------------------------------------|
g--------------------------------------------------|     3x
b--------------------------------------------------|
a--3-3-3-3-3-3-3-3-3--5-5--------------------------|
e--1-1-1-1-1-1-1-1-1--3-3--------------------------|

e--------------------------------------------------|
a--------------------------------------------------|
d--------------------------------------------------|
g--------------------------------------------------|
b--3-3-3-3-3-3-2-2-2-5-5-5--7-7-7-7-5-5--5--3-3--3-|
e--1-1-1-1-1-1-0-0-0-3-3-5--5-5-5-5-3-3--3--1-1--1-|

e--------------------------------------------------|
a--------------------------------------------------|
d--------------------------------------------------|
g--------------------------------------------------|
b--2-2-5-7--7-7-7-7-5-5--5-3-3--3-2-2-5-7----------|
e--0-0-3-5--5-5-5-5-3-3--3-1-1--1-0-0-3-5----------|

e--------------------------------------------------|
a--------------------------------------------------|
d--------------------------------------------------|
g--------------------------------------------------|      3x
b--3-3-3-3-3-3-3-3-3-5-5-3-------------------------|
e--1-1-1-1-1-1-1-1-1-3-3-1-------------------------|

e--------------------------------------------------|
a--------------------------------------------------|
d--------------------------------------------------|
g--------------------------------------------------|
b--5-5----5--7-------------------------------------|
e--3-3----3--5-------------------------------------|


the tab is very easy all chords are power chords
this is my first tab so give it a good rate ok?
            
Submit corrections


        Smooth Criminal lessons Hard to play? Try these video lessons and learn fast Smooth Criminal lessons
        
↑ Back to top | Tablatures and chords for acoustic guitar and electric guitar, ukulele, drums are parodies/interpretations of the original songs. You may use it for private study, scholarship, research or language learning purposes only