Home » M » Mew »

Mew - Life Is Not Distant Tabs

Artists:  A B C D E F G H I J K L M N O P Q R S T U V W X Y Z # 

Life Is Not Distant Tabs

(ver. 1) Click to play this song!
Mew
 Rating:
2.7/5 (7 votes)
                No fuzz, just correct tabs by Emil aka Snook

Intro
e|------3-------3-------3-------3----------|
B|----4-------4---4-------------------4----|
G|--5-------5---------0-------0-----0------|
D|------------------5-------5-----5----(0)-| 
A|-----------------------------------------|
E|-----------------------------------------|

Life is not distant...

e|------3-------3-------3-------3----------|
B|----4-------4---4-------------------4----|
G|--5-------5---------0-------0-----0------|
D|------------------5-------5-----5--------| x5
A|-----------------------------------------|
E|-----------------------------------------|

You should pretend not to know...

e|------3-------3-------3-------3----------|
B|----4---4---4---4-------------------4----|
G|--5-------5---------0-------0-----0------|
D|------------------5-------5-----5--------| x3 - fade
A|-----------------------------------------|
E|-----------------------------------------|


Lyrics: 

Life is not distant like that
It is mad
Just like a star that explodes
Or like notes
You should pretend not to know
It is slow
Life is not distant like that
It is mad
Just like a star that explodes
Or like notes
You should pretend not to know
It is slow
Life is not distant like that
It is mad
Just like a star that explodes 
            
Submit corrections

↑ Back to top | Tablatures and chords for acoustic guitar and electric guitar, ukulele, drums are parodies/interpretations of the original songs. You may use it for private study, scholarship, research or language learning purposes only