Home » M » Mew »

Mew - Comforting Sound Tabs

Artists:  A B C D E F G H I J K L M N O P Q R S T U V W X Y Z # 

Comforting Sound Tabs

(ver. 2) Click to play this song!
Mew
 Rating:
4/5 (4 votes)
                Artist - Mew
Song   - Comforting Sound
Album  - Frengers

Tuning - Standard (EADGBE)

A – 577655 || Bm - 224432
E – x22100 || D  - xx0323

\  = Slide down 
/  = Slide up    

/|--------------------------------------------------|\
||                      NOTE!                       ||
||This is the longer version of the song, 8:44, but ||
||it can be used for the smaller version as well..  ||
\|--------------------------------------------------|/


[INTRO]
      
e/|-----------------------------------------------------------|
B||-----6------6------6------6---------1-----1------1------1--|
G||--7-7-7--7-7-7--7-7-7--7-7-7\--2/3\2---2-2-2--2-2-2--2-2-2-|
D||-----------------------------------------------------------|
A||-----------------------------------------------------------|
E\|-----------------------------------------------------------|

e/|-----------------------------------------------------------|
B||---------------------------6----6-6-6--6-6-6--6-6-6--6\----|
G||---------------------------7-7--7-7-7--7-7-7--7-7-7--7\----|
D||-------4------4------4-------------------------------------|
A||--5/6\5-5--5-5-5--5-5-5------------------------------------|
E\|-----------------------------------------------------------|

e/|-----------------------------------------------------------|
B||--1-1--1-1-1--1-1-1--1-1-1--1------------------------------|
G||--2-2--2-2-2--2-2-2--2-2-2--2-----7-------7-------7--------|
D||-------------------------------4-4---4-4-4---4-4-4---------|
A||-------------------------------5-5---5-5-5---5-5-5---------|
E\|-----------------------------------------------------------|

e/|-----------------------------------------------------------|
B||-----------------------------------------------------------|
G||-------7---------9-------9-------9-------9-----------------|
D||--4-4-4---4/--6-6---6-6-6---6-6-6---6-6-6---6--------------|
A||--5-5-5---5/--7-7---7-7-7---7-7-7---7-7-7---7--------------|
E\|-----------------------------------------------------------|


[VERSE 1]
   repeat twice     [I don’t feel alright.....]
e/|-----------------------------------------------------------|
B||-----9-------9-------9-------9---------4-------4-------4---|
G||--6-6---6-6-6---6-6-6---6-6-6---6\--1-1---1-1-1---1-1-1----|
D||--7-7---7-7-7---7-7-7---7-7-7---7\--2-2---2-2-2---2-2-2----|
A||-----------------------------------------------------------|
E\|-----------------------------------------------------------|

e/|-----------------------------------------------------------|
B||-------4---------------------------------------------------|
G||--1-1-1---1-----7-------7-------7-------7------------------|
D||--2-2-2---2--4-4---4-4-4---4-4-4---4-4-4---4---------------|
A||-------------5-5---5-5-5---5-5-5---5-5-5---5---------------|
E\|-----------------------------------------------------------|


[CHORUS] repeat this twice
             [Into your house.....]
e/|------9-------9-------9-------9---------4-------4-------4--|
B||------9-------9-------9-------9---------4-------4-------4--|
G||--7-7----7-7-7---7-7-7---7-7-7---7\--2-2---2-2-2---2-2-2---|
D||-----------------------------------------------------------|
A||-----------------------------------------------------------|
E\|-----------------------------------------------------------|

e/|-------4---------------------------------------------------|
B||-------4--------7-------7-------7-------7-------7-------7--|
G||--2-2-2---2-----7-------7-------7-------7-------7-------7--|
D||-------------5-5---5-5-5---5-5-5---5-5-5---5-5-5---5-5-5---|
A||-----------------------------------------------------------|
E\|-----------------------------------------------------------|


[VERSE 2] repeat twice
   
e/|-----------------------------------------------------------|
B||-----9-------9-------9-------9---------4-------4-------4---|
G||--6-6---6-6-6---6-6-6---6-6-6---6\--1-1---1-1-1---1-1-1----|
D||--7-7---7-7-7---7-7-7---7-7-7---7\--2-2---2-2-2---2-2-2----|
A||-----------------------------------------------------------|
E\|-----------------------------------------------------------|

e/|-----------------------------------------------------------|
B||-------4---------------------------------------------------|
G||--1-1-1---1-----7-------7-------7-------7------------------|
D||--2-2-2---2--4-4---4-4-4---4-4-4---4-4-4---4---------------|
A||-------------5-5---5-5-5---5-5-5---5-5-5---5---------------|
E\|-----------------------------------------------------------|


[CHORUS]

e/|------9-------9-------9-------9---------4-------4-------4--|
B||------9-------9-------9-------9---------4-------4-------4--|
G||--7-7----7-7-7---7-7-7---7-7-7---7\--2-2---2-2-2---2-2-2---|
D||-----------------------------------------------------------|
A||-----------------------------------------------------------|
E\|-----------------------------------------------------------|

e/|-------4---------------------------------------------------|
B||-------4--------7-------7-------7-------7-------7-------7--|
G||--2-2-2---2-----7-------7-------7-------7-------7-------7--|
D||-------------5-5---5-5-5---5-5-5---5-5-5---5-5-5---5-5-5---|
A||-----------------------------------------------------------|
E\|-----------------------------------------------------------|


[VERSE 3] repeat twice   
                  [I’ve put on.......]
e/|-----9-------9-------9-------9---------4-------4-------4---|
B||-----------------------------------------------------------|
G||--6-6---6-6-6---6-6-6---6-6-6---6\--1-1---1-1-1---1-1-1----|
D||-----------------------------------------------------------|
A||-----------------------------------------------------------|
E\|-----------------------------------------------------------|

e/|-------4---------------------------------------------------|
B||----------------7-------7-------7-------7------------------|
G||--1-1-1---1------------------------------------------------|
D||-------------4-4---4-4-4---4-4-4---4-4-4---4---------------|
A||-----------------------------------------------------------|
E\|-----------------------------------------------------------|


[FILL] repeat twice

e/|-----------------------------------------------------------|
B||-----------------------------------------------------------|
G||--6-6-6-6-6-6-6-6-6-6-6-6-6-6-6-6-6\--2-2-2-2-2-2-2-2-2-2--|
D||-----------------------------------------------------------|
A||-----------------------------------------------------------|
E\|-----------------------------------------------------------|

e/|-----------------------------------------------------------|
B||-----------------------------------------------------------|
G||--2-2-2-2-2-2-2-2-2-2-2-2-2-2-2-2-2-2-2-2-2-2--------------|
D||-----------------------------------------------4-4-4-4-4-4-|
A||-----------------------------------------------------------|
E\|-----------------------------------------------------------|

e/|-----------------------------------------------------------|
B||-----------------------------------------------------------|
G||-----------------------------------------------------------|
D||--4-4-4-4-4-4-4-4-4-4-4------------------------------------|
A||-----------------------------------------------------------|
E\|-----------------------------------------------------------|


[OUTRO]

e/|------5--------5--------5--------5----------0--------0-----|
B||------5--------5--------5--------5----------0--------0-----|
G||------6--------6--------6--------6----------1--------1-----|
D||--7-7-7--7-7-7-7--7-7-7-7--7-7-7-7--7---2-2-2--2-2-2-2-----|
A||------7--------7--------7--------7----------2--------2-----|
E\|------5--------5--------5--------5-------------------------|

e/|--------0--------0----------2--------2--------2-------2----|
B||--------0--------0----------3--------3--------3-------3----|
G||--------1--------1------4-4-4--4-4-4-4--4-4-4-4—4-4-4-4----|
D||--2-2-2-2--2-2-2-2--2-------4--------4--------4-------4----|
A||--------2--------2----------2--------2--------2-------2----|
E\|----------------------------2--------2--------2-------2----|

e/|--------3--------3--------3--------3-----------------------|
B||--------2--------2--------2--------2-----------------------|
G||--3-3-3-3--3-3-3-3--3-3-3-3--3-3-3-3--3--------------------|
D||--------0--------0--------0--------0-----------------------|
A||-----------------------------------------------------------|
E\|-----------------------------------------------------------|


   Repeat this until the end of the song
   The chords are A E Bm D
            
Submit corrections

↑ Back to top | Tablatures and chords for acoustic guitar and electric guitar, ukulele, drums are parodies/interpretations of the original songs. You may use it for private study, scholarship, research or language learning purposes only