Home » M » Metro Station »

Metro Station - Wish We Were Older Tabs

Artists:  A B C D E F G H I J K L M N O P Q R S T U V W X Y Z # 

Wish We Were Older Tabs

(ver. 1) Click to play this song!
Metro Station
MetroStation-Wish We Were Older

this is a sick song and i realised cuz the other tab isnt right id tab it out. the synth 
the intro is right cuz i slowed the song down and worked it out.
rate & comment :)

Synth-Guitar Intro
e|-------13-----------------------------------------------------------|
B|-----14----14-16-------14----11-------11----------------16--13-14---|
G|---------15----------15----13-------11--10-11-13------15--15--------|
D|---15--------------12----13--------9----------------13--------------|
A|-13--------------10---------------7---------------11----------------|
D|--------------------------------------------------------------------|

after the synth intro the synth plays the leads from the chorus a couple of times.

backing to intro + verse

e|------------------------------------|
B|------------------------------------|
G|------------------------------------|
D|--8888-4444-1111-6666---------------|
A|--8888-4444-1111-6666---------------|
D|--8888-4444-1111-6666---------------|

Chorus
e|------------------------------------|
B|------------------------------------|
G|-33333333-66666666-11111111-88888888|
D|-33333333-66666666-11111111-88888888|
A|-11111111-44444444-99999999-66666666|
D|------------------------------------|

synth leads for chorus

e|14--14--16--16--18--18--21--21---|
B|--18--18--18--18--18--18--18--18-|
G|---------------------------------|
D|---------------------------------|
A|---------------------------------|
D|---------------------------------|

Verse

Chorus

Verse

Chorus
            
Submit corrections

↑ Back to top | Tablatures and chords for acoustic guitar and electric guitar, ukulele, drums are parodies/interpretations of the original songs. You may use it for private study, scholarship, research or language learning purposes only