Home » M » Metro Station »

Metro Station - Wish We Were Older Bass

Artists:  A B C D E F G H I J K L M N O P Q R S T U V W X Y Z # 

Wish We Were Older Bass

(ver. 1) Click to play this song!
Metro Station
Intro/Chorus:
E------------------------------------------------|
A----8-8-8-8-------------------------------------|
D-----------4-4-44-4--6-6-6-61-1-11-1------------| x2
G------------------------------------------------|

Verse:
E------------------------------------------------|
A-8-8-8-84-4-44-41-1-1-1-1-----------------------|
D-------------------------1-1-11-1---------------| x3
G------------------------------------------------|

Verse(Little Change):
E-------------------------------------------------|
A-8-8-8-84-4-44-41-1-1-1-1------------------------|
D-------------------------1-1-11-1-1-1-11--1-11-1-|
G-------------------------------------------------|

Chorus*
Verse*
Chorus*

Bridge: Same riff as verse

Chorus: x2


Thanx for checkin' it out! hugz and kissez!!! :o)
            
Submit corrections

↑ Back to top | Tablatures and chords for acoustic guitar and electric guitar, ukulele, drums are parodies/interpretations of the original songs. You may use it for private study, scholarship, research or language learning purposes only