Home » M » Mest »

Mest - Without You Tabs

Artists:  A B C D E F G H I J K L M N O P Q R S T U V W X Y Z # 

Without You Tabs

(ver. 1) Click to play this song!
Mest
Beginning Without Distortion play C, F, A, G 

Palm Mutes 
e|---------------------------------------------------------------------------| 
B|---------------------------------------------------------------------------| 
G|--5------------------------------------------------------------------------| 
D|--5----7----3---5----------------------------------------------------------| 
A|--3----7----3---5----------------------------------------------------------| 
E|-------5----1---3----------------------------------------------------------| 

Chorus 
e|---------------------------------------------------------------------------| 
B|---------------------------------------------------------------------------| 
G|---5-----------------------------------------------------------------------| 
D|---5---3----7----5---------------------------------------------------------| 
A|---3---3----7----5---------------------------------------------------------| 
E|-------1----5----3---------------------------------------------------------| 

e|---------------------------------------------------------------------------| 
B|---------------------------------------------------------------------------| 
G|--5------------------------------------------------------------------------| 
D|--5----7----3-----5--------------------------------------------------------| 
A|--3----7----3-----5--------------------------------------------------------| 
E|-------5----1-----3--------------------------------------------------------| 

Interlude 
e|---------------------------------------------------------------------------| 
B|---------------------------------------------------------------------------| 
G|---------------------------------------------------------------------------| 
D|-3------5------------------------------------------------------------------| 
A|-3------5------------------------------------------------------------------| 
E|-1------3------------------------------------------------------------------| 

Short Solo 
e|---------------------------------------------------------------------------| 
B|---------------------------------------------------------------------------| 
G|---------------------------------------------------------------------------| 
D|---------------------------------------------------------------------------| 
A|-7-5-7-5-3--7-5-7-5-3--7-5-7-5-3--3-2-5-10---------------------------------| 
E|---------------------------------------------------------------------------| 
            
Submit corrections

↑ Back to top | Tablatures and chords for acoustic guitar and electric guitar, ukulele, drums are parodies/interpretations of the original songs. You may use it for private study, scholarship, research or language learning purposes only