Home » M » Mest »

Mest - Walking On Broken Glass Tabs

Artists:  A B C D E F G H I J K L M N O P Q R S T U V W X Y Z # 

Walking On Broken Glass Tabs

(ver. 1) Click to play this song!
Mest
Mest 
Walking on broken glass



riff one/verse
e|-----------------------------------------
b|-----------------------------------------
g|---4----4----4----4----4----4----4----4-- (2xon the intro)
d|--4-4--4-4--4-4--4-4--4-4--4-4--4-4--4-4-
a|-----------------------------------------
e|-4----4----2----2----0----0----2----2----

2nd pt pf intro
e|----------------------------------------------
b|----------------------------------------------
g|---------------------------99999999-8888-6666-
d|-6-6--6-6--6-6--6-6--6\4----------------------
a|-6-6--6-6--6-6--6-6--6\4---77777777-6666-4444-
e|-4-4--4-4--4-4--4-4--4\2----------------------

pre-chorus
e|---------------------------------------------------
b|---------------------------------------------------
g|---------------------------------------------------
d|-x-x-6--x-x-6--x-x-4--x-x-4--x-x-2--2--x-x-4-x-x-4-
a|-x-x-6--x-x-6--x-x-4--x-x-4--x-x-2--2--x-x-4-x-x-4-
e|-x-x-4--x-x-4--x-x-2--x-x-2--x-x-0--0--x-x-2-x-x-2-

fill 
e|---------------
b|---------------
g|-------------e-
d|-99-e-9-e-9----
a|---------------
e|---------------

end on
e|--
b|--
g|-4
d|-4
a|-2

chorus
e|-------- 
b|--------
g|-4------
d|-4-4-6-2
a|-2-4-6-2
e|---2-4-0

time can be...
e|-----------
b|-----------
g|-4---------
d|-4-4-6-4-2-
a|-2-4-6-4-2-
e|---2-4-2-0-

bridge
e|------------------------
b|------------------------
g|------99999999/eeeeeeee-
d|-x6\4---------/---------
a|-x6\4-77777777/99999999-
e|-x4\2-------------------

fill
e|---------------------------------
b|---------------------------------
g|---------------------------------
d|-9999/11111111/13131313/14141414-
a|------^elevens-------------------
e|---------------------------------

bridge 2
e|---7----6--
b|----7----7-
g|----------- (im not sure about this part, but it sounded close)
d|-9----8----
a|-----------
e|-----------

end on
d|-4
a|-4
e|-2

format

intro
verse
pre chorus
chorus
verse
pre chorus
chorus
intro 2
bridge
bridge 2
chorus
intro 2

i love you amanda
            
Submit corrections

↑ Back to top | Tablatures and chords for acoustic guitar and electric guitar, ukulele, drums are parodies/interpretations of the original songs. You may use it for private study, scholarship, research or language learning purposes only