Home » M » Mest »

Mest - Say So Long Tabs

Artists:  A B C D E F G H I J K L M N O P Q R S T U V W X Y Z # 

Say So Long Tabs

(ver. 2) Click to play this song!
Mest

Instrument: Guitar (1st and 2nd)
Tunning: Standard



Intro.

E|-------------------------------------------------------------------------------------------------
B|-------------------------------------------------------------------------------------------------
G|-------4-------4-------4-------4-----------------------------------------------------------------
D|-----4---4---4---4---4---4---4---4------4-------4-------------------4-------------------4--------
A|---2--------2-------2-------2---------4---4---4---4-----6----2----4---4-----6----2----4---4------
E|------------------------------------2-------2---------4----0----2---------4----0----2------------
 "It's 3 am and you're walking....."

E|--------------------------------------------------------------------------
B|--------------------------------------------------------------------------
G|-------4-------4-------4-------4------------------------------------------
D|-----4---4---4---4---4---4---4---4------4-------4-------------------4-----
A|---2--------2-------2-------2---------4---4---4---4-----6----2----4---4---
E|------------------------------------2-------2---------4----0----2---------
 "Cause time and time again...."


Pre-chorus (00:26)

E|------------------
B|------------------
G|------------------
D|---6---2---4------
A|---6---2---4------ 
E|---4---0---2------
 " You said yes..."


Chorus (00:29)

1st guitar
E|-----------------------------------------------------------  Repeat 4x
B|-----------------------------------------------------------
G|--4-4-4-4-4-4----------------------------------------------
D|--4-4-4-4-4-4---4-4-4-4-4-4---6-6-6-6-6-6---2-2-2-2-2-2----
A|--2-2-2-2-2-2---4-4-4-4-4-4---6-6-6-6-6-6---2-2-2-2-2-2----
E|----------------2-2-2-2-2-2---4-4-4-4-4-4---0-0-0-0-0-0----
  "I say so long......."


2nd guitar (Octaves)
E|-------------------------------------------------------------------------- Repeat 4x
B|--------------------------------------------------------------------------
G|--4-4-4-4-4-4-4-4--6-6-6-6-6-6-6-6--8-8-8-8-8-8-8-8--9-9-9-9-9-9-9-9------
D|--x-x-x-x-x-x-x-x--x-x-x-x-x-x-x-x--x-x-x-x-x-x-x-x--x-x-x-x-x-x-x-x------
A|--2-2-2-2-2-2-2-2--4-4-4-4-4-4-4-4--6-6-6-6-6-6-6-6--7-7-7-7-7-7-7-7------
E|--------------------------------------------------------------------------



Verse 2 (00:50)

E|----------------------------------------------------------------------------------------------------
B|----------------------------------------------------------------------------------------------------
G|--4-xxxxxxxxxx-4-xxxxx-4-xx-4-xx-4------------------------------------------------------------------
D|--4-xxxxxxxxxx-4-xxxxx-4-xx-4-xx-4---4-xxxxxx---6-xx---2-xx---4-xxxxx---6-xx---2-xx--4-xxxx---------
A|--2-xxxxxxxxxx-2-xxxxx-2-xx-2-xx-2---4-xxxxxx---6-xx---2-xx---4-xxxxx---6-xx---2-xx--4-xxxx---------
E|-------------------------------------2-xxxxxx---4-xx---0-xx---2-xxxxx---4-xx---0-xx--2-xxxx---------

E|--------------------------------------------------------------------------
B|--------------------------------------------------------------------------
G|--4-xxxxxxxxxx-4-xxxxx-4-xx-4-xx-4----------------------------------------
D|--4-xxxxxxxxxx-4-xxxxx-4-xx-4-xx-4---4-xxxxxx---6-xx---2-xx---4-xxxxx-----
A|--2-xxxxxxxxxx-2-xxxxx-2-xx-2-xx-2---4-xxxxxx---6-xx---2-xx---4-xxxxx-----
E|-------------------------------------2-xxxxxx---4-xx---0-xx---2-xxxxx-----

E|------------------         
B|------------------
G|------------------             NOTE: The Xs means palm mute.
D|---6---2---4------
A|---6---2---4------ 
E|---4---0---2------
 "You got no place..."




Chorus 2 (01:17)


1st guitar
E|-----------------------------------------------------------  Repeat 4x
B|-----------------------------------------------------------
G|--4-4-4-4-4-4----------------------------------------------
D|--4-4-4-4-4-4---4-4-4-4-4-4---6-6-6-6-6-6---2-2-2-2-2-2----
A|--2-2-2-2-2-2---4-4-4-4-4-4---6-6-6-6-6-6---2-2-2-2-2-2----
E|----------------2-2-2-2-2-2---4-4-4-4-4-4---0-0-0-0-0-0----
  "I say so long......."


2nd guitar 
E|-------------------------------------------------------------------------- Repeat 4x
B|--------------------------------------------------------------------------
G|--4-4-4-4-4-4-4-4--6-6-6-6-6-6-6-6--8-8-8-8-8-8-8-8--9-9-9-9-9-9-9-9------
D|--x-x-x-x-x-x-x-x--x-x-x-x-x-x-x-x--x-x-x-x-x-x-x-x--x-x-x-x-x-x-x-x------
A|--2-2-2-2-2-2-2-2--4-4-4-4-4-4-4-4--6-6-6-6-6-6-6-6--7-7-7-7-7-7-7-7------
E|--------------------------------------------------------------------------




1st Bridge (01:38)

E|--------------------------------------------------------  Repeat 2x
B|--------------------------------------------------------
G|--4---4-4-----------------9--9-9--9-9-9-9---/---11-11---
D|--4---4-4---6--6--6--6----9--9-9--9-9-9-9---/---11-11---
A|--2---2-2---6--6--6--6----7--7-7--7-7-7-7---/---9--9----
E|------------4--4--4--4----------------------------------


2nd Bridge (01:49)

E|---------------------------------------------
B|---------------------------------------------
G|---------------------------------4-4-4-4-----
D|---6-6-6-6---2-2-2-2---4-4-4-4---4-4-4-4-----
A|---6-6-6-6---2-2-2-2---4-4-4-4---2-2-2-2-----
E|---4-4-4-4---0-0-0-0---2-2-2-2---------------
 "You're questioning the road....."

E|---------------------------------------------
B|---------------------------------------------
G|---------------------------------4-xxxxxx----    NOTE: The Xs means palm mute.
D|---6-6-6-6---2-2-2-2---4-4-4-4---4-xxxxxx----    
A|---6-6-6-6---2-2-2-2---4-4-4-4---2-xxxxxx----
E|---4-4-4-4---0-0-0-0---2-2-2-2---------------

E|---------------------------------------------
B|---------------------------------------------
G|---------------------------------4-4-4-4-----
D|---6-6-6-6---2-2-2-2---4-4-4-4---4-4-4-4-----
A|---6-6-6-6---2-2-2-2---4-4-4-4---2-2-2-2-----
E|---4-4-4-4---0-0-0-0---2-2-2-2---------------
 "Now you're here....."

E|-----------------------------------
B|-----------------------------------
G|-----------------------------------
D|---6-6-6-6---2-2-2-2---4-xxxxxx----
A|---6-6-6-6---2-2-2-2---4-xxxxxx----
E|---4-4-4-4---0-0-0-0---2-xxxxxx----


Chorus 3 (02:10)

1st guitar
E|-----------------------------------------------------------  Repeat 4x
B|-----------------------------------------------------------
G|--6-6-6-6-6-6---------------------------------------------
D|--6-6-6-6-6-6---6-6-6-6-6-6---8-8-8-8-8-8---4-4-4-4-4-4----
A|--4-4-4-4-4-4---6-6-6-6-6-6---8-8-8-8-8-8---4-4-4-4-4-4----
E|----------------4-4-4-4-4-4---6-6-6-6-6-6---2-2-2-2-2-2----
  "I say so long......."


2nd guitar 
E|------------------------------------------------------------------------------------------ Repeat 4x
B|------------------------------------------------------------------------------------------
G|--6-6-6-6-6-6-6-6--8-8-8-8-8-8-8-8--10-10-10-10-10-10-10-10---11-11-11-11-11-11-11-11-----
D|--x-x-x-x-x-x-x-x--x-x-x-x-x-x-x-x--x--x--x--x--x--x--x--x----x--x--x--x--x--x--x--x------
A|--4-4-4-4-4-4-4-4--6-6-6-6-6-6-6-6--8--8--8--8--8--8--8--8----9--9--9--9--9--9--9--9------
E|------------------------------------------------------------------------------------------


Outro. (02:32)

1st guitar
E|--------------------------------------------------
B|--------------------------------------------------
G|--------------------------------------------------
D|---3-----------3-----4--3------3----------3-------
A|-----4---6-------4--------6------4---6------4-----
E|-------4-----------4---------------4----------4---


2nd guitar
E|-----------------------------------------------------------  
B|-----------------------------------------------------------
G|--6-6-6-6-6-6---------------------------------------------
D|--6-6-6-6-6-6---6-6-6-6-6-6---8-8-8-8-8-8---4-4-4-4-4-4----
A|--4-4-4-4-4-4---6-6-6-6-6-6---8-8-8-8-8-8---4-4-4-4-4-4----
E|----------------4-4-4-4-4-4---6-6-6-6-6-6---2-2-2-2-2-2----

E|--------------------------------------------
B|--------------------------------------------
G|--6-6-6-6-6-6-------------------------------
D|--6-6-6-6-6-6---6-6-6-6-6-6---8-8-8-8-8-8---
A|--4-4-4-4-4-4---6-6-6-6-6-6---8-8-8-8-8-8---
E|----------------4-4-4-4-4-4---6-6-6-6-6-6---


Ending (02:41)

BOTH GUITARS
E|------------------------  
B|------------------------
G|------------------6-6---
D|----4-4----6-6----6-6---
A|----4-4----6-6----4-4---
E|----2-2----4-4----------


That's it! It's a simple song. Any questions or comments, you know you can e-mail me!
Have fun playing this sh*t!  :)
            
Submit corrections

↑ Back to top | Tablatures and chords for acoustic guitar and electric guitar, ukulele, drums are parodies/interpretations of the original songs. You may use it for private study, scholarship, research or language learning purposes only