Home » M » Mest »

Mest - Night Alone Tabs

Artists:  A B C D E F G H I J K L M N O P Q R S T U V W X Y Z # 

Night Alone Tabs

(ver. 1) Click to play this song!
Mest
e|---------------------------------------------------------------------------|
B|-0-0--0-0--0-0--0-0--------------------------------------------------------|
G|1-1--1-1--3-3-------Repeat---Guitar 2 over this--------44-33---------------|
D|---------------4-4---------------Palm Muted-----22-22--44-44---------------|
A|------------------------------------------------22-22--22-11---------------|
E|-----------------------------Also the verse-----00-00----------------------|

e|Chorus-------Riff Behind Chours--------------------------------------------|
B|---------------------------------------------------------------------------|
G|--------89----------11-9-8-9--6-4-3-4--------------------------------------|
D|------9-89----------X--X-X-X--X-X-X-X--------------------------------------|
A|------9-67----------9--7-6-7--4-2-1-2--------------------------------------|
E|------7--------------------------------------------------------------------|

That's basically it..... I may have forgot some stuff, but oh well, you'll figure it out.  Sweet.  Have fun.

Jim Nothing's Guitarist Zero
            
Submit corrections

↑ Back to top | Tablatures and chords for acoustic guitar and electric guitar, ukulele, drums are parodies/interpretations of the original songs. You may use it for private study, scholarship, research or language learning purposes only