Home » M » Mest »

Mest - Jaded (These Years) Tabs

Artists:  A B C D E F G H I J K L M N O P Q R S T U V W X Y Z # 

Jaded (These Years) Tabs

(ver. 1) Click to play this song!
Mest
CORRECTED: August 14, 2003. I watched the video and watched it played live; this is how Tony Lovly-Lovato and Jere-friggin-miah Rangel do it! :P


[[Introduction -- Preferrably acoustic]]
------7-----------7----------------7-----------7--------------------
---------------5---------------------------5------------------------
---5-----4------------0--------5-------4---------0------------------x2


------7---------7--------7-------7----------------------------------
-------------0----0----5-------5---5--------------------------------
---5------4-----------------0---------------------------------------


These two parts play at the same time ONCE:
--------------------------------    -----------------------
--------------------------------    -----------------------
------2------------2------------    -------------7-777--9--
----------------0---------------    ---7-777-6---7-777--9--
---0----------------------------    ---7-777-6---5-555--7--
---------4------------0---------    ---5-555-4-------------

Repeat this until the CHORUS (strummed):
--------------------------------
--------------------------------
-------------7-7---9-9-9-9999---
7-77--6-666--7-7---9-9-9-9999---
7-77--6-666--5-5---7-7-7-7777---
5-55--4-444---------------------

The [[Chorus]] guitar. Strum lightly, not too harsh even though it's now electric guitar.
---------------------------------------
---------------------------------------
---------77777777----------------------
77777777-77777777-44444444-22222222----
77777777-55555555-44444444-22222222----
55555555----------22222222-00000000----x2

-------------7-7---9-9-9-9999----------------7-7---9-9-9-9999~--
7-77--6-666--7-7---9-9-9-9999---7-77--6-666--7-7---9-9-9-9999~--
7-77--6-666--5-5---7-7-7-7777---7-77--6-666--5-5---7-7-7-7777~--
5-55--4-444---------------------5-55--4-444---------------------

These are a bit more harsh, so have fun pluckin 'em!
--------------------
--------------------
----------77-7-79---
77-7-76---77-7-79---
77-7-76---55-5-57---
55-5-54-------------x4

[[Chorus guitar again, twice]]

During the "I'll never forget, the places we've been" part, I believe you play the chorus again.

[[ACOUSTIC!!]]
---------------------------------------
---------------------------------------
---------77777777----------------------
77777777-77777777-44444444-22222222----
77777777-55555555-44444444-22222222----
55555555----------22222222-00000000----x?

Play the [[Chorus]] until the end.


If there's anything wrong, EMAIL ME, BIZNATCHS! >:D
            
Submit corrections

↑ Back to top | Tablatures and chords for acoustic guitar and electric guitar, ukulele, drums are parodies/interpretations of the original songs. You may use it for private study, scholarship, research or language learning purposes only