Home » M » Merle Haggard »

Merle Haggard - Mama Tried Tabs

Artists:  A B C D E F G H I J K L M N O P Q R S T U V W X Y Z # 

Mama Tried Tabs

(ver. 2) Click to play this song!
Merle Haggard
 Acoustic guitar 
e|-----------------------------------------------------------------|
B|------7--------10---8---7----------------------------------------|
G|-----------7-----------------------------------------------------|
D|---0-------------------------------------------------------------| repeat pattern 2 to 4 times
A|-----------------------------------------------------------------|
E|-----------------------------------------------------------------|

 Electric guitar intro
e|---12------------------------------------------------------------|
B|---------13---------9------------------0--0----------------------|
G|-------------------------10------------2--2----------------------|
D|-----------------------------------------------------------------|
A|-----------------------------------------------------------------|
E|-----------------------------------------------------------------|            
Submit corrections

↑ Back to top | Tablatures and chords for acoustic guitar and electric guitar, ukulele, drums are parodies/interpretations of the original songs. You may use it for private study, scholarship, research or language learning purposes only