Home » M » Merle Haggard »

Merle Haggard - Twinkle Twinkle Lucky Star Tabs

Artists:  A B C D E F G H I J K L M N O P Q R S T U V W X Y Z # 

Twinkle Twinkle Lucky Star Tabs

(ver. 1) Click to play this song!
Merle Haggard
 Rating:
4.2/5 (5 votes)
                Twinkle Twinkle Lucky Star solo in E:

e-------------------------------7------------------------------
b------5-7^(9) 7^(9)-(9)^7p5-7/9-7h9-------5-7/9/7p5-7/9/7p5---
g-4-4h6-------------------------------4-4h6--------------------
d--------------------------------------------------------------
a--------------------------------------------------------------
e--------------------------------------------------------------

           rake   
e---------------12--12-----------------------------------------
b-7-9---------12--14--14-12--------------------------12--------
g-----6-----12--------------11-12-11-9--9--9--9-11/13--13------
d---------14--------------------------11-11-11-----------------
a--------------------------------------------------------------
e--------------------------------------------------------------

e--------------------------------------------------------------
b---5-7-7^(9)(7)^(9)^(7)-5h7p5---------------------------------
g-/4-----------------------------------------------------------
d--------------------------------------------------------------
a--------------------------------------------------------------
e--------------------------------------------------------------
            
Submit corrections

↑ Back to top | Tablatures and chords for acoustic guitar and electric guitar, ukulele, drums are parodies/interpretations of the original songs. You may use it for private study, scholarship, research or language learning purposes only