Home » M » Merle Haggard »

Merle Haggard - It's Been A Great Afternoon Tabs

Artists:  A B C D E F G H I J K L M N O P Q R S T U V W X Y Z # 

It's Been A Great Afternoon Tabs

(ver. 2) Click to play this song!
Merle Haggard
Its Been a Great Afternoon		Merle Haggard

Intro/ Outro

E-------------------------------------------------------|
B-------------------------------------------------------|
G-------------2~~-----------------------2~~-------------|
D---------2-4-----/5-4-2h4----------2-4-----/5-4-2h4----|
A-0~~-2/4------------------0~~--2/4------------------0--|
E-------------------------------------------------------|

Solo

E-----------------------|-5----5--5--5---|-5----5--5---|--------|
B-----------------------|-5----5--5--5---|-5----5--5---|--------|
G---------------------2-|-7(9)(9)(9)(9)--|-7(9)(9)(9)7-|-7p5h7\-|
D-----------------2-4---|--bh------------|--b-------r--|--------|
A-0---0-00-00-2/4-------|----------------|-------------|--------|
E---2-------------------|----------------|-(4 times!!)-|--------|

E---------------------------5-----5-------|---------------------|
B-----------------------------5-7---7-5\2-|--b-r-------bh-------|
G-----------------------2-----------------|-4(6)4-2-4-4(6)------|
D-----------2---2---2h4---4---------------|---------------------|
A-----0-2/4---4---4-----------------------|---------------------|
E-0h2-------------------------------------|---------------------|

E---------------------------------------------------------------|
B---------------------------------------------------------------|
G-/4~-4~-4~-4~--bh----------------------------------------------|
D--------------4(6)-2-0---2-2-0--b-r----------------------------|
A-----------------------2-------2(4)2-0-------------------------|
E---------------------------------------------------------------|
            
Submit corrections

↑ Back to top | Tablatures and chords for acoustic guitar and electric guitar, ukulele, drums are parodies/interpretations of the original songs. You may use it for private study, scholarship, research or language learning purposes only