» » »

Mercyful Fate - Fiteen Men Tabs

Artists:  A B C D E F G H I J K L M N O P Q R S T U V W X Y Z # 

Fiteen Men Tabs

(ver. 1) Click to play this song!
Mercyful Fate
 Rating:
4/5 (4 votes)

 Fiteen Men lessons Tabs too difficult? Try these video lessons and learn fast
 
                #




Song  : Fifteen Men(and a bottle of rum) from the album "Into The Unknown".
Tab created and edited by Serkan Gunturk.


e:-------------------------------------------------------------------|
B:-------------------------------------------------------------------|
G:-------------------------------------------------------------------|
D:-------------9---------------------------------------9-------------|
A:-----8---7-----------8---7---10--7---8-------8---7-----------8---7-|
E:-0---------------0-----------------------0---------------0---------|

e:---------------|----------------------------------------------|
B:---------------|----------------------------------------------|
G:--------------o|---------------------------------------------o|
D:--9---7-------o|---------------------------------6---6---5---o|
A:----------8----|-5---5---3---6---5---5---3---6---4---4---3----|
E:---------------|-3---------------3----------------------------|
                   1640...         The Caribbean Sea...


e:-------------------------------------------------------------------|
B:-------------------------------------------------------------------|
G:--------------9---------------------------------------9------------|
D:------8---7-----------8---7---10--7---8-------8---7-----------8---7|
A:--0---------------0-----------------------0---------------0--------|
E:-------------------------------------------------------------------|

e:----------------|----------------------------------------------|
B:----------------|----------------------------------------------|
G:---9---7-------o|---------------------------------------------o|
D:-----------8---o|---------------------------------6---6---5---o|
A:----------------|-5---5---3---6---5---5---3---6---4---4---3----|
E:----------------|-3---------------3----------------------------|
                    Heading for a Western shore...


e:-------------------------------------------------------------------|
B:-------------------------------------------------------------------|
G:-------------------------------------------------------------------|
D:-------------9---------------------------------------9-------------|
A:-----8---7-----------8---7---10--7---8-------8---7-----------8---7-|
E:-0---------------0-----------------------0---------------0---------|
   The "Unicorn" was riding high on the tide...


e:---------------|------------------------------------------|
B:---------------|------------------------------------------|
G:--------------o|-----------------------------------------o|
D:--9---7-------o|-------------------------------------3---o|
A:----------8----|-{0}---3---{0}---3---{0}---3---{0}---1----|
E:---------------|-----------------1------------------------|

e:-------------------------------------------|
B:-------------------------------------------|
G:------------------------------------------o|
D:------------------3-------------------6---o|
A:------------------1-------------------4----|
E:--{0}---3---{0}-------{0}---3---{0}--------|


  Solo: Shermann-Denner...

   8 times  8 times
e:---------------------------------------|
B:---------------------------------------|
G:---------------------------------------|
D:-9---------10--------------------------|
A:-7---------8---------------------------|
E:-----0---------0-----------------------|
   Fifteen men and a bottle of rum...


e:-------------------------------------------------------------------|
B:-------------------------------------------------------------------|
G:-------------------------------------------------------------------|
D:-7---9---------------12--9---------------------------7---9---------|
A:-5---7---------------10--7---------------------------5---7---------|
E:---------0---0---0-----------0---0---0---0---0---0-----------0---0-|
   Listen hard on a stormy night...


e:-------------------------------------------------------------------|
B:------5---------------7--------------------------------------------|
G:----------5---------------7----------------------------------------|
D:--5-----------5---7-----------7----7---9---------------12--9-------|
A:--3---------------5----------------5---7---------------10--7-------|
E:-------------------------------------------0---0---0-----------0---|
    It's a warning, storm is coming, yeah, you'd better look out!


If you have more tabs of Mercyful Fate or King Diamond please e-mail them
to me. Good luck!

Serkan Gunturk
Bogazici University
Physics Department
Istanbul.
            
Submit corrections


        Fiteen Men lessons Hard to play? Try these video lessons and learn fast Fiteen Men lessons
        
↑ Back to top | Tablatures and chords for acoustic guitar and electric guitar, ukulele, drums are parodies/interpretations of the original songs. You may use it for private study, scholarship, research or language learning purposes only