Home » M » Meiko »

Meiko - Hiding Tabs

Artists:  A B C D E F G H I J K L M N O P Q R S T U V W X Y Z # 

Hiding Tabs

(ver. 2) Click to play this song!
Meiko
ok this is my first tab but im sure i got most of it right =]
every other line (-) is one beat meaning every single line is a half beat so youll see 
the beat is kinda fast

and note that above every little series of notes youll see that theres a letter above 
the letters indicate where to play that part while your singing. the lyrics are after the song

Intro

e---------------------------------------------------------------------------|
B-------0-----0-------0-----0-------0-----0-------0-------0-------0-------0-|
G-----2-----2-------0-----0-------2-----2-------0-------0-------0-------0---|
D---2-----2-------2-----2-------2-----2-------2-----2-2-----2-2-----2-2-----|
A-0-------------3-------------0-------------3-------------------------------|
E---------------------------------------------------------------------------|


Verse
        A             B
  (-------------) (----------------|
e----------------------------------|
B-------0-------0-------0-------0--|
G-----2-------2-------0-------0----|
D---2-------2-------2-------2------|
A-0---------------3----------------|
E----------------------------------|


Chorus
         C               B               D                E
  (-------------) (-------------) (-------------)   (--------------|
e------------------------------------------------------------------|
B-------1-------1-------0-------0-------1-------1-------1-------1--|
G-----2-------2-------0-------0-------2-------2-------2-------2----|
D---2-------2-------2-------2-------3-------3-------0-------0------|
A-0---------------3------------------------------------------------|
E---------------------------------1--------------------------------|


Ending
        E
  (--------------|
e----------------|
B-----1-------1--|
G---2-------2----|
D-0-------0------|
A----------------|
E----------------|


Song

(Play Intro)

A
Running out of time

  B
I know I gotta find you

A                          B
Wonder if you're even there

A
Taking me for granted

  B
I can barely stand it

A                     B
Wonder why i even care

            C             B
Oh no, baby you can't you see?

    D              E
I'm hiding in your arms

            C             B
Oh no, baby you can't you see?

            D              E
Don't wanna find myself in harm

A
Showing me the way I

B
Thought I heard you say that

A                                 B
Good things come to those who wait

A
Watching Every hour

B
Watch you going sour

A                           B
Watching you control my fate

            C             B
oh no, baby you can't you see?

    D             E
I'm hiding in you arms

            C             B
oh no, baby you can't you see?

              D              E
Don't want to find myself in harm

(C,B,D,E,C,B,D,E,E)


Running out of space

I can't see your face

I've forgotten how you used to be

Saying that you love me

That you're thinking of me

Taking my identity

            C             B
oh no, baby you can't you see?

   D              E
im hiding in your arms

            C             B
oh no, baby you can't you see?

           D              E
dont wanna find myself in harm

            C             B
oh no, baby you can't you see

   D              E
im hiding in your arms

            C             B
oh no, baby you can't you see

           D              E
Dont wanna find myself in harm

(C,B,D,E,C,B,D,E,E)
            
Submit corrections

↑ Back to top | Tablatures and chords for acoustic guitar and electric guitar, ukulele, drums are parodies/interpretations of the original songs. You may use it for private study, scholarship, research or language learning purposes only