Home » M » Meiko »

Meiko - Leave The Lights On Tabs

Artists:  A B C D E F G H I J K L M N O P Q R S T U V W X Y Z # 

Leave The Lights On Tabs

(ver. 3) Click to play this song!
Meiko
Intro:

e|-----------------------------------------------------------------|
B|-----------------------------------------------------------------|
G|-----7-----7---------6-----6---------4-----4---------4-----4-----|
D|---9-----9-----0---7-----7-----0---5-----5-----5---5-----5-----0-|
A|-----------------------------------------------------------------|
E|-7-----7-----0---5-----5-----0---3-----3-----3---3-----3-----0---|


Verse 1:

e|-----------------------------------------------------------------|
B|-----------------------------------------------------------------|
G|-----7-----7---------6-----6---------4-----4---------4-----4-----| x4
D|---9-----9-----0---7-----7-----0---5-----5-----5---5-----5-----0-|
A|-----------------------------------------------------------------|
E|-7-----7-----0---5-----5-----0---3-----3-----3---3-----3-----0---|


Chorus 1:

e|-----------------------------------------------------------------|
B|-----------------------------------------------------------------|
G|-----7-----7---0-----6-----6---0-----4-----4---4-----4-----4---0-| x2
D|---9-----9---------7-----7---------5-----5---------5-----5-------|
A|-----------------------------------------------------------------|
E|-7-----7-----0---5-----5-----0---3-----3-----3---3-----3-----0---|


e|-----------------------------------------------------------------|
B|-----------------------------------------------------------------|
G|-----7-----7---0-----6-----6---0-----4-----4---------4-----4-----| 
D|---9-----9---------7-----7---------5-----5-----5---5-----5-----0-|
A|-----------------------------------------------------------------|
E|-7-----7-----0---5-----5-----0---3-----3-----3---3-----3-----0---|


Verse 2

e|-----------------------------------------------------------------|
B|-----------------------------------------------------------------|
G|-----7-----7---------6-----6---------4-----4---------4-----4-----| x4
D|---9-----9-----0---7-----7-----0---5-----5-----5---5-----5-----0-|
A|-----------------------------------------------------------------|
E|-7-----7-----0---5-----5-----0---3-----3-----3---3-----3-----0---|


Chorus 2:

e|-----------------------------------------------------------------|
B|-----------------------------------------------------------------|
G|-----7-----7---0-----6-----6---0-----4-----4---4-----4-----4---0-| x4
D|---9-----9---------7-----7---------5-----5---------5-----5-------|
A|-----------------------------------------------------------------|
E|-7-----7-----0---5-----5-----0---3-----3-----3---3-----3-----0---|


Bridge:

e|-----------------------------------------------------------------|
B|-----------------------------------------------------------------|
G|-----7-----7---0-----6-----6---0-----4-----4---4-----4-----4---0-| 
D|---9-----9---------7-----7---------5-----5---------5-----5-------|
A|-----------------------------------------------------------------|
E|-7-----7-----0---5-----5-----0---3-----3-----3---3-----3-----0---|

e|-----------------------------------------------------------------|
B|-----------------------------------------------------------------|
G|-----7-----7---0-----6-----6---0-----4-----4---4-----4-----4-----| 
D|---9-----9---------7-----7---------5-----5---------5-----5-----0-|
A|-----------------------------------------------------------------|
E|-7-----7-----0---5-----5-----0---3-----3-----3---3-----3-----0---|


Chorus 3:

e|-----------------------------------------------------------------|
B|-----------------------------------------------------------------|
G|-----------------------------------------------------------------|
D|-----------------------------------------------------------------|
A|-----------------------------------------------------------------|
E|-7---------------5---------------3-------------------------------|

e|-----------------------------------------------------------------|
B|-----------------------------------------------------------------|
G|-----7-----7---0-----6-----6---0-----4-----4---4-----4-----4---0-| x3
D|---9-----9---------7-----7---------5-----5---------5-----5-------|
A|-----------------------------------------------------------------|
E|-7-----7-----0---5-----5-----0---3-----3-----3---3-----3-----0---|


Outro:

e|------------------------------------------------------------------------|
B|------------------------------------------------------------------------|
G|-------7---------------6---------------4---------------4----------------|
D|----9------9--------7------7--------5------5---5----5------5------------|
A|---------------0---------------0-------------------------------5--------|
E|-7-----------0---5-----------0---3-----------3---3-----------3---3------|            
Submit corrections

↑ Back to top | Tablatures and chords for acoustic guitar and electric guitar, ukulele, drums are parodies/interpretations of the original songs. You may use it for private study, scholarship, research or language learning purposes only