» » »

Me First And The Gimme Gimmes - Wild World Tabs

Artists:  A B C D E F G H I J K L M N O P Q R S T U V W X Y Z # 

Wild World Tabs

(ver. 1) Click to play this song!
Me First And The Gimme Gimmes
 Rating:
4/5 (4 votes)

 Wild World lessons Tabs too difficult? Try these video lessons and learn fast
 
                Standard Tuning

INTRO
 rhythm                                                         
-------------------|-------------------|
-------------------|-------------------|
-------------------|-------------------|
--6-6-6-6-6-6-6-6--|-------------------|
--4-4-4-4-4-4-4-4--|--4-4-4-4-4-4-4-4--|
-------------------|--2-2-2-2-2-2-2-2--|
                                                   
-------------------|-------------------|
-------------------|-------------------|
-------------------|-------------------|
--4-4-4-4-4-4-4-4--|-------------------|
--2-2-2-2-2-2-2-2--|--2-2-2-2-2-2-2-2--|
-------------------|--0-0-0-0-0-0-0-0--|
                                                     
-------------------|-------------------|
-------------------|-------------------|
-------------------|-------------------|
--2-2-2-2-2-2-2-2--|-------------------|
--0-0-0-0-0-0-0-0--|--4-4-4-4-4-4-4-4--|
-------------------|--2-2-2-2-2-2-2-2--|
                                                      
-------------------|-------------------|
-------------------|-------------------|
-------------------|-------------------|
-------------------|-------------------|
--6-6-6-6-6-6-6-6--|--6-6-6-6-6-6-6-6--|
--4-4-4-4-4-4-4-4--|--4-4-4-4-4-4-4-4--|

 lead
-------------------|---------------------------|
-------------------|---------------------------|
--9-9-9-9-9-9-9-9--|--14-14-14-14-14-14-14-14--|
-------------------|---------------------------|
--7-7-7-7-7-7-7-7--|--12-12-12-12-12-12-12-12--|
-------------------|---------------------------|
                                                                      
---------------------------|---------------------------|
---------------------------|---------------------------|
--13-13-13-11-11-11-11-11--|--13-13-13-13-13-13-13-13--|
---------------------------|---------------------------|
--11-11-11-9--9--9--9--9---|--11-11-11-11-11-11-11-11--|
---------------------------|---------------------------|
                                                  
-------------------|-------------------|
-------------------|-------------------|
--9-9-9-9-9-9-9-9--|--6-6-6-6-6-6-6-6--|
-------------------|-------------------|
--7-7-7-7-7-7-7-7--|--4-4-4-4-4-4-4-4--|
-------------------|-------------------|
                                                                          
-------------------|-------------------|-------------------|
-------------------|-------------------|-------------------|
--8-8-8-8-8-8-8-8--|--5-5-5-5-5-5-5-5--|--6----------------|
-------------------|-------------------|-------------------|
--6-6-6-6-6-6-6-6--|--3-5-3-3-3-3-3-3--|--4----------------|
-------------------|-------------------|-------------------|

VERSE 
 part 1                                                     
-------------------|-------------------|
-------------------|-------------------|
-------------------|--6-6-6-6-6-6-6-6--|
--6-6-6-6-6-6-6-6--|--4-4-4-4-4-4-4-4--|
--4-4-4-4-4-4-4-4--|-------------------|
-------------------|-------------------|
                                                   
-------------------|-------------------|
-------------------|-------------------|
-------------------|-------------------|
--4-4-4-4-4-4-4-4--|-------------------|
--2-2-2-2-2-2-2-2--|--2-2-2-2-2-2-2-2--|
-------------------|--0-0-0-0-0-0-0-0--|
                                                     
-------------------|-------------------|
-------------------|-------------------|
-------------------|-------------------|
--2-2-2-2-2-2-2-2--|-------------------|
--0-0-0-0-0-0-0-0--|--4-4-4-4-4-4-4-4--|
-------------------|--2-2-2-2-2-2-2-2--|
                                                      
-------------------|-------------------|
-------------------|-------------------|
-------------------|-------------------|
-------------------|-------------------|
--6-6-6-6-6-6-6-6--|--6-6-6-6-6-6-6-6--|
--4-4-4-4-4-4-4-4--|--4-4-4-4-4-4-4-4--|

 part 2
-------------------|-------------------|
-------------------|-------------------|
-------------------|--6-6-6-6-6-6-6-6--|
--6-6-6-6-6-6-6-6--|--4-4-4-4-4-4-4-4--|
--4-4-4-4-4-4-4-4--|-------------------|
-------------------|-------------------|
                                                   
-------------------|-------------------|
-------------------|-------------------|
-------------------|-------------------|
--4-4-4-4-4-4-4-4--|-------------------|
--2-2-2-2-2-2-2-2--|--2-2-2-2-2-2-2-2--|
-------------------|--0-0-0-0-0-0-0-0--|
                                                     
-------------------|-------------------|
-------------------|-------------------|
-------------------|-------------------|
--2-2-2-2-2-2-2-2--|-------------------|
--0-0-0-0-0-0-0-0--|--4-4-4-4-4-4-4-4--|
-------------------|--2-2-2-2-2-2-2-2--|

------------|
------------|
------------|
------------|
--6--6---9--|
--4--4---7--|

BRIDGE                                                                           
-----------------------------|
-----------------------------|
-----------------------------|
--7-7-7-7--6-6-6-6--4-4-4-4--|
-----------------------------|
-----------------------------|

CHORUS
-------------------|
-------------------|
-------------------|
--9-9-9-9-9-9-9-9--|
--7-7-7-7-7-7-7-7--|
-------------------|
      
-------------------|-------------------|
-------------------|-------------------|
-------------------|-------------------|
-------------------|-------------------|
--9-9-9-9-9-9-9-9--|--7-7-7-7-7-7-7-7--|
--7-7-7-7-7-7-7-7--|--5-5-5-5-5-5-5-5--|
                                                                           
---------------------|-------------------|-------------------|
--5-4-2--------------|-------------------|-------------------|
---------4-2-1-------|-------------------|-------------------|
----------------4-2--|----x--9--9--9-9---|-------------------|
---------------------|----x--9--9--9-9---|--7-7-7-7-7-7-7-7--|
---------------------|----x--7--7--7-7---|--5-5-5-5-5-5-5-5--|

-------------------|-----------------|
-------------------|-----------------|
-------------------|-----------------|
-------------------|---------2-2-----|
--2-2-2-2-2-2-2-2--|---2--4-------4--|
--0-0-0-0-0-0-0-0--|-----------------|

-------------------|
-------------------|
-------------------|
--9-9-9-9-9-9-9-9--|
--7-7-7-7-7-7-7-7--|
-------------------|
      
-------------------|-------------------|
-------------------|-------------------|
-------------------|-------------------|
-------------------|-------------------|
--9-9-9-9-9-9-9-9--|--7-7-7-7-7-7-7-7--|
--7-7-7-7-7-7-7-7--|--5-5-5-5-5-5-5-5--|
                                                                           
---------------------|-------------------|-------------------|
--5-4-2--------------|-------------------|-------------------|
---------4-2-1-------|-------------------|-------------------|
----------------4-2--|----x--9--9--9-9---|-------------------|
---------------------|----x--9--9--9-9---|--7-7-7-7-7-7-7-7--|
---------------------|----x--7--7--7-7---|--5-5-5-5-5-5-5-5--|

-------------------|----------|
-------------------|----------|
-------------------|---6---8--|
-------------------|---4---6--|
--2-2-2-2-2-2-2-2--|----------|
--0-0-0-0-0-0-0-0--|----------|

VERSE part 1 & 2 
INTRO
VERSE part 2
CHORUS
END: XX64XXX
            
Submit corrections


        Wild World lessons Hard to play? Try these video lessons and learn fast Wild World lessons
        
↑ Back to top | Tablatures and chords for acoustic guitar and electric guitar, ukulele, drums are parodies/interpretations of the original songs. You may use it for private study, scholarship, research or language learning purposes only