Home » M » Me First And The Gimme Gimmes »

Me First And The Gimme Gimmes - Some Where Over The Rainbow Tabs

Artists:  A B C D E F G H I J K L M N O P Q R S T U V W X Y Z # 

Some Where Over The Rainbow Tabs

(ver. 1) Click to play this song!
Me First And The Gimme Gimmes
 Rating:
4/5 (4 votes)
                Somewhere Over the Rainbow, by Me First and the Gimmie Gimmies
Standard tunning
Key:
/x\-scratch
pm ...-palm mute
b-bend
p-pull off
Verse
E------------------------------------------------------------------
B------------------------------------------------------------------
G----------------------------------4-4-4-4-4-4-4-4-4-4-4-4-4-4-4-4-
D--5-5-5-5-5-5-5-5-5-5-5-5-5-5-5-5-4-4-4-4-4-4-4-4-4-4-4-4-4-4-4-4-
A--5-5-5-5-5-5-5-5—5-5-5-5-5-5-5-5-2-2-2-2-2-2-2-2-2-2-2-2-2-2-2-2-
E--3-3-3-3-3-3-3-3—3-3-3-3-3-3-3-3---------------------------------

E---------------------------------------------------------
B---------------------------------------------------------
G—-5-5-5-5-5-5-5-5-5-5-5-5-5-5-5-5------------------------
D—-5-5-5-5-5-5-5-5-5-5-5-5-5-5-5-5-5-5-5-5-5-5-5-5-5-5-5--
A—-3-3-3-3-3-3-3-3-3-3-3-3-3-3-3-3-5-5-5-5-5-5-5-5-5-5-5--
E----------------------------------3-3-3-3-3-3-3-3-3-3-3--

E------------------------------------------------------------------
B------------------------------------------------------------------
G--5-5-5-5-5-5-5-5-5-5-5-5-5-5-5-5-----------------9-9-9-9-9-9-9-9-
D--5-5-5-5-5-5-5-5-5-5-5-5-5-5-5-5-5-5-5-5-5-5-5-5-9-9-9-9-9-9-9-9-
A--3-3-3-3-3-3-3-3-3-3-3-3-3-3-3-3-5-5-5-5-5-5-5-5-7-7-7-7-7-7-7-7-
E----------------------------------3-3-3-3-3-3-3-3-----------------

E---------------------------------------------------------------
B---------------------------------------------------------------
G------------------4-4-4-4-4-4-4-4------------------------------
D—-7-7-7-7-7-7-7-7-4-4-4-4-4-4-4-4-5-5-5-5-5-5-5-5-5-5-5-5------
A—-7-7-7-7-7-7-7-7-2-2-2-2-2-2-2-2-5-5-5-5-5-5-5-5-5-5-5-5-/x\--
E—-5-5-5-5-5-5-5-5-----------------3-3-3-3-3-3-3-3-3-3-3-3—/x\--
Break
E----------------------------------------------------------------
B----------------------------------------------------------------
G---------------------------------5--5-5-5-5-5-5-5-5-5-5-5-5-5-5-
D—-5—-5-5-5-5-5-5-5-5-5-5-5-5-5-5-5—-5-5-5-5-5-5-5-5-5-5-5-5-5-5-
A—-5—-5-5-5-5-5-5-5-5-5-5-5-5-5-5-3—-3-3-3-3-3-3-3-3-3-3-3-3-3-3-
E—-3—-3-3-3-3-3-3-3-3-3-3-3-3-3-3--------------------------------
    pm. . . . . . . . . . . . . .    . . . . . . . . . . . . . .
E-----------------------------------------------------------------
B-----------------------------------------------------------------
G---------------------------------7-7-7-7-7-7-7-7-7-7-7-7-7-7-7-7-
D—-5—-5-5-5-5-5-5-5-5-5-5-5-5-5-5-7-7-7-7-7-7-7-7-7-7-7-7-7-7-7-7-
A—-5—-5-5-5-5-5-5-5-5-5-5-5-5-5-5-5-5-5-5-5-5-5-5-5-5-5-5-5-5-5-5-
E—-3—-3-3-3-3-3-3-3-3-3-3-3-3-3-3---------------------------------
    pm. . . . . . . . . . . . . .
E-------------------------------------------------------------------------------
B-------------------------------------------------------------------------------
G---------------------------------12—-12-12-12-12-12-12-12-12-12-12-12-12-12-12-
D—-5—-5-5-5-5-5-5-5-5-5-5-5-5-5-5-12—-12-12-12-12-12-12-12-12-12-12-12-12-12-12-
A—-5—-5-5-5-5-5-5-5-5-5-5-5-5-5-5-10—-10-10-10-10-10-10-10-10-10-10-10-10-10-10-
E—-3—-3-3-3-3-3-3-3-3-3-3-3-3-3-3-----------------------------------------------
    pm. . . . . . . . . . . . . .     .  .  .  .  .  .  .  .  .  .  .  .  .  .
E--------------------------------------------------------------
B--------------------------------------------------------------
G---------------------------------7-7-7-7-7-7-7-7-7-7-7-7------
D—-7—-7-7-7-7-7-7-7-7-7-7-7-7-7-7-7-7-7-7-7-7-7-7-7-7-7-7------
A—-7—-7-7-7-7-7-7-7-7-7-7-7-7-7-7-5-5-5-5-5-5-5-5-5-5-5-5-/x\--
E—-5—-5-5-5-5-5-5-5-5-5-5-5-5-5-5-------------------------/x\--
    pm. . . . . . . . . . . . . .
Solo
E-----------------------------------------------------------------------
B-----------------------------------------------------------------------
G----------------------------------------12-11-9—-9-11-12-14b-14p12-12--
D—-9-12-9-12-9-12-9-12-10-12-10-12-10-12--------------------------------
A-----------------------------------------------------------------------
E-----------------------------------------------------------------------
Outro
E------------------------------------------------------------------
B------------------------------------------------------------------
G----------------------------------5-5-5-5-5-5-5-5-5-5-5-5-5-5-5-5-
D—-5-5-5-5-5-5-5-5-5-5-5-5-5-5-5-5-5-5-5-5-5-5-5-5-5-5-5-5-5-5-5-5-
A—-5-5-5-5-5-5-5-5-5-5-5-5-5-5-5-5-3-3-3-3-3-3-3-3-3-3-3-3-3-3-3-3-
E—-3-3-3-3-3-3-3-3-3-3-3-3-3-3-3-3---------------------------------

E----------------3--
B----------------3--
G—-7—-5—-4—-2----4--
D—-7—-5—-4—-2----5--
A—-5—-3—-2—-0----5--
E----------------3--
            
Submit corrections

↑ Back to top | Tablatures and chords for acoustic guitar and electric guitar, ukulele, drums are parodies/interpretations of the original songs. You may use it for private study, scholarship, research or language learning purposes only