» » »

Me First And The Gimme Gimmes - Seasons In The Sun Tabs

Artists:  A B C D E F G H I J K L M N O P Q R S T U V W X Y Z # 

Seasons In The Sun Tabs

(ver. 2) Click to play this song!
Me First And The Gimme Gimmes
 Rating:
4/5 (4 votes)

 Seasons In The Sun lessons Tabs too difficult? Try these video lessons and learn fast
 
                ~ = Let ring
 
[INTRO:] (Heavy distortion)
A|--0-1-2-0---0-1-2-0---0-1-2-0-4---| 
E|--0-0-0-0---0-0-0-0---0-0-0-0-2---|
[VERSE:] (With bass and drum, palm mute)
A|--------------------------------------------------------------------|
E|--2-2-2-0-2-2-2-0-2-2-2-0-2-2-2-0-4-4-4-0-4-4-4-0-4-4-4-0-4-4-4-0---|
A|---------------------------------------4-4-4------|
E|2-2-2-0-2-2-2-0-2-2-2-0-2-2-2-0-4-4-4-0-----4-2---|
[VERSE/ PRE-CHORUS:] (Ska style - stum up)
e|-------------------------------------------------|
B|--7-7-7-7---9-9-9-9---7-7-7-7---9~---------------|
G|--6-6-6-6---8-8-8-8---6-6-6-6---8~---------------|
D|--4-4-4-4---6-6-6-6---4-4-4-4---6~---444444444---|
A|-------------------------------------444444444---|
E|-------------------------------------222222222---|
[CHORUS 1:] (Distorion)
e|---------------------------------------------|
B|---------------------------------------------|
G|----------------------6-6-6-6-6-6-6-6--------|
D|--4-4-4-4---6-6-6-6---6-6-6-6-6-6-6-6---4~---|
A|--4-4-4-4---6-6-6-6---4-4-4-4-4-4-4-4---4~---|
E|--2-2-2-2---4-4-4-4---------------------2~---|
[FILL:] 
A|--0-1-2-4---| 
E|--0-0-0-2---| 
Verse x1
Verse/ Pre-Chorus x1
[CHORUS 2:] Chorus 1, plus
e|---------------------------------------------|
B|---------------------------------------------|
G|---------------------------------------------|
D|--7-7-7-7---9-9-9-9---2-2-2-2-2-2-2-2---7~---|
A|--7-7-7-7---9-9-9-9---2-2-2-2-2-2-2-2---7~---|
E|--5-5-5-5---7-7-7-7---0-0-0-0-0-0-0-0---5~---|
Fill x1
Verse x1
Verse/ Pre-Verse x1
[CHORUS 3:] Chorus 1&2, plus
e|--------------------------------------------|
B|--------------------------------------------|
G|--------------------------------------------|
D|--8-8-8-8---10-10-10-10---3-3-3-3-3-3-3-3---| x2
A|--8-8-8-8---10-10-10-10---3-3-3-3-3-3-3-3---|
E|--6-6-6-6----8--8--8--8---1-1-1-1-1-1-1-1---|
End on
D|--8~---|
A|--8~---|
E|--6~---|
[END:]
            
Submit corrections


        Seasons In The Sun lessons Hard to play? Try these video lessons and learn fast Seasons In The Sun lessons
        
↑ Back to top | Tablatures and chords for acoustic guitar and electric guitar, ukulele, drums are parodies/interpretations of the original songs. You may use it for private study, scholarship, research or language learning purposes only