» » »

Me First And The Gimme Gimmes - Phantom Of The Opera Song Tabs

Artists:  A B C D E F G H I J K L M N O P Q R S T U V W X Y Z # 

Phantom Of The Opera Song Tabs

(ver. 2) Click to play this song!
Me First And The Gimme Gimmes
 Rating:
4/5 (4 votes)


 Phantom Of The Opera Song lessons Tabs too difficult? Try these video lessons and learn fast
 
                played with 2 guitars in standard ( E A D G H e ) tuning
settings: full distortion on both guitars



INTRO

guitar 1
------------------------3b4b1---|---------------------------------------------
-3--3-1--3--3-1--3--3-1-------1-|-3--3-1--3--3-1--3--3--1--3--3-1-------------
--------------------------------|---------------------------------------------
--------------------------------|---------------------------------------------
--------------------------------|---------------------------------------------
--------------------------------|---------------------------------------------
 
                                                                             
guitar 2
--------------------------------|---------------------------------------------
--------------------------------|---------------------------------------------
--------------------------------|-7--7-7--7-7-7-7-7-7-7-7-7-6-5-4-------------
--------------------------------|-7--7-7--7-7-7-7-7-7-7-7-7-6-5-4-------------
--------------------------------|-5--5-5--5-5-5-5-5-5-5-5-5-4-3-2-------------
--------------------------------|---------------------------------------------
   


                                                                           
guitar 1
-------------------------3b4b1---|--------------------------------------------
-3--3-1--3--3-1--3--3-1--------1-|-3--3-1--3--3-1--3--3-1--3--3-1-------------
---------------------------------|--------------------------------------------
---------------------------------|--------------------------------------------
---------------------------------|--------------------------------------------
---------------------------------|--------------------------------------------
         
                                                                     
guitar 2
---------------------------------|--------------------------------------------
---------------------------------|--------------------------------------------
-3--3-3--3-3-3-3-3-3-3-3-3-4-5-6-|-7--7-7--7-7-7-7-7-7-7-7-7-6-5-4------------
-3--3-3--3-3-3-3-3-3-3-3-3-4-5-6-|-7--7-7--7-7-7-7-7-7-7-7-7-6-5-4------------
-1--1-1--1-1-1-1-1-1-1-1-1-2-3-4-|-5--5-5--5-5-5-5-5-5-5-5-5-4-3-2------------
---------------------------------|--------------------------------------------
                                                                              



guitar 1
------------------------3b4b1----|--------------------------------------------
-3--3-1--3--3-1--3--3-1-------1--|-3****--------------------------------------
---------------------------------|--------------------------------------------
---------------------------------|--------------------------------------------
---------------------------------|--------------------------------------------
---------------------------------|--------------------------------------------
                                                                              

guitar 2
---------------------------------|--------------------------------------------
---------------------------------|--------------------------------------------
-3--3-3--3-3-3-3-3-3-3-3-3-4-5-6-|-7------------------------------------------
-3--3-3--3-3-3-3-3-3-3-3-3-4-5-6-|-7--7-7--7-7-7-7-7-7-7-7-7-7-7-7------------
-1--1-1--1-1-1-1-1-1-1-1-1-2-3-4-|-5--5-5--5-5-5-5-5-5-5-5-5-5-5-5------------
---------------------------------|--------------------------------------------
                                                                              



VERSE 1 ("In sleep he sang to me, in dreams he came..")

guitar 1
----------------------------------|-------------------------------------------
----------------------------------|-------------------------------------------
----------------------------------|---------------5--7------------------------
----------------------------------|---------------5--7------------------------
----------------------------------|---------------3--5------------------------
----------------------------------|-------------------------------------------
                                                                              

guitar 2
----------------------------------|-------------------------------------------
----------------------------------|-------------------------------------------
------------------5---------------|-7-------------5--7------------------------
-5----------------5--5-5--5-5-5-5-|-7--7-7--7-7-7-5--7--7-7--7-7-7-7----------
-5--5-5--5-5-5-5--3--3-3--3-3-3-3-|-5--5-5--5-5-5-3--5--5-5--5-5-5-5----------
-3--3-3--5-3-3-3------------------|-------------------------------------------
 

                                                                             

guitar 1
----------------------------------|-------------------------------------------
----------------------------------|-------------------------------------------
----------------------------------|---------------5--7------------------------
----------------------------------|---------------5--7------------------------
----------------------------------|---------------3--5------------------------
----------------------------------|-------------------------------------------
                                                                              

guitar 2
----------------------------------|-------------------------------------------
----------------------------------|-------------------------------------------
------------------5---------------|-7-------------5--7------------------------
-5----------------5--5-5--5-5-5-5-|-7--7-7--7-7-7-5--7------------------------
-5--5-5--5-5-5-5--3--3-3--3-3-3-3-|-5--5-5--5-5-5-3--5------------------------
-3--3-3--3-3-3-3------------------|-------------------------------------------
                                                                              



PRE CHORUS ("And do I dream again? For now I find")

guitar 1
-----------------------------------|------------------------------------------
-----------------------------------|------------------------------------------
-7--7-7--7-7-7-7-\-5--5-5--5-5-5-5-|-10--10-10--10-10-10-10\9-\-77777777------
-7--7-7--7-7-7-7-\-5--5-5--5-5-5-5-|-10--10-10--10-10-10-10\9-\-77777777------
-5--5-5--5-5-5-5-\-3--3-3--3-3-3-3-|--8---8--8---8--8--8--8\7-\-55555555------
-----------------------------------|------------------------------------------
                                                                              

guitar 2
-----------------------------------|------------------------------------------
-----------------------------------|------------------------------------------
-3--3-3--3-3-3-3---5--5-5--5-5-5-5-|-7----7--7---7-7-7-7-7-7-7-7-7-7-7-7------
-3--3-3--3-3-3-3---5--5-5--5-5-5-5-|-7----7--7---7-7-7-7-7-7-7-7-7-7-7-7------
-1--1-1--1-1-1-1---3--3-3--3-3-3-3-|-5----5--5---5-5-5-5-5-5-5-5-5-5-5-5------
-----------------------------------|------------------------------------------
      



CHORUS ("The Phantom of the Opera is there inside my mind")                                                                       

both guitars
-----------------------------------|------------------------------------------
-----------------------------------|------------------------------------------
-7--7-7--7-7-7-7-7-7-7-7-7-7-7-7---|-3--3-3--3-3-3-3-3-3-3-3-3-3-3-3----------
-7--7-7--7-7-7-7-7-7-7-7-7-7-7-7---|-3--3-3--3-3-3-3-3-3-3-3-3-3-3-3----------
-5--5-5--5-5-5-5-5-5-5-5-5-5-5-5---|-1--1-1--1-1-1-1-1-1-1-1-1-1-1-1----------
-----------------------------------|------------------------------------------
          
                                                                    
both guitars
-----------------------------------|------------------------------------------
-----------------------------------|------------------------------------------
-7--7-7--7-7-7-7-7-7-7-7-7-6-5-4---|-3--3-3--3-3-3-3-3-3-3-3-3----------------
-7--7-7--7-7-7-7-7-7-7-7-7-6-5-4---|-3--3-3--3-3-3-3-3-3-3-3-3----------------
-5--5-5--5-5-5-5-5-5-5-5-5-4-3-2---|-1--1-1--1-1-1-1-1-1-1-1-1-7-6-5----------
-----------------------------------|---------------------------5-4-3----------
  
 


VERSE 2 ("Sing once again with me our strange duet..")
                                                                           
both guitars
-----------------------------------|------------------------------------------
-----------------------------------|------------------------------------------
-----------------------------------|-5----------------------------------------
-5---------------------------------|-5--5-5--5-5-5-5--3-----------------------
-5--5-5--5-5-5-5-5-5-5-5-5-5-5-5---|-3--3-3--3-3-3-3--3--3-3--3-3-3-3---------
-3--3-3--3-3-3-3-3-3-3-3-3-3-3-3---|------------------1--1-1--1-1-1-1---------
                                                                              

both guitars
-----------------------------------|------------------------------------------
-----------------------------------|------------------------------------------
-----------------------------------|-5----------------------------------------
-5-------------5--5----------------|-5--5-5--5-5-5-5---3----------------------
-5--5-5--5-5-5-5--5--5-5--5-5-5-5--|-3--3-3--3-3-3-3---3--3-3--3-3-3-3--------
-3--3-3--3-3-3-3--3--3-3--3-3-3-3--|-------------------1--1-1--1-1-1-1--------
                                                                              

both guitars			    PRE CHORUS ("And though you turn..")
-----------------------------------|------------------------------------------
-----------------------------------|------------------------------------------
-----------------------------------|-7--7-7--7-7-7-7--10--10-10--10-10-10-10--
-5---------------------------------|-7--7-7--7-7-7-7--10--10-10--10-10-10-10--
-5--5-5--5-5-5-5-5-5-5-5-5-5-5-5---|-5--5-5--5-5-5-5---8---8--8---8--8--8--8--
-3--3-3--3-3-3-3-3-3-3-3-3-3-3-3---|------------------------------------------
       
                                                                       
both guitars			    CHORUS ("The Phantom Of The Opera..")
-----------------------------------|------------------------------------------
-----------------------------------|------------------------------------------
-12-\------------------------------|-12-\-------------------------------------
-12--x15---------------------------|-12---x15---------------------------------
-10-/------------------------------|-10-/-------------------------------------
-----------------------------------|------------------------------------------
     
                                                                      
both guitars
-----------------------------------|------------------------------------------
-----------------------------------|------------------------------------------
-10-\------------------------------|-12-\-----11-10-9-------------------------
-10--x15---------------------------|-12--x12--11-10-9-------------------------
--8-/------------------------------|-10-/------9--8-7-------------------------
-----------------------------------|------------------------------------------
    
                                                                          
both guitars			    VERSE 3 ("Those who have seen..")
-----------------------------------|------------------------------------------
-----------------------------------|------------------------------------------
-8--8-8--8-8-8-8--7--7-7--7-7-7-7--|------------------------------------------
-8--8-8--8-8-8-8--7--7-7--7-7-7-7--|-2----------------------------------------
-6--6-6--6-6-6-6--5--5-5--5-5-5-5--|-2--2-2--2-2-2-2-2-2-2-2-2-2-2-2----------
-----------------------------------|-0--0-0--0-0-0-0-0-0-0-0-0-0-0-0----------
 
                                                                             
both guitars
-----------------------------------|------------------------------------------
-----------------------------------|------------------------------------------
-2----------------7----------------|------------------------------------------
-2--2-2--2-2-2-2--7--7-7--7-7-7-7--|-2----------------------------------------
-0--0-0--0-0-0-0--5--5-5--5-5-5-5--|-2--2-2--2-2-2-2-2-2-2-2-2-2-2-2----------
-----------------------------------|-0--0-0--0-0-0-0-0-0-0-0-0-0-0-0----------
                                                                              

both guitars
-----------------------------------|------------------------------------------
-----------------------------------|------------------------------------------
-2----------------7-------------7--|------------------------------------------
-2--2-2--2-2-2-2--7--7-7--7-7-7-7--|-2----------------------------------------
-0--0-0--0-0-0-0--5--5-5--5-5-5-5--|-2--2-2--2-2-2-2-2-2-2-2-2-2-2-2----------
-----------------------------------|-0--0-0--0-0-0-0-0-0-0-0-0-0-0-0----------
                                                                              




PRE CHORUS ("Your spirit and my voice in one combined..")

guitar 1
-----------------------------------|------------------------------------------
-----------------------------------|------------------------------------------
-9--9-9--9-9-9-9-\-7--7-7--7-7-7-7-|-12--12-12--12-12-12\11-\-9-9-9-9-9-9-9-9-
-9--9-9--9-9-9-9-\-7--7-7--7-7-7-7-|-12--12-12--12-12-12\11-\-9-9-9-9-9-9-9-9-
-7--7-7--7-7-7-7-\-5--5-5--5-5-5-5-|-10--10-10--10-10-10\-9-\-7-7-7-7-7-7-7-7-
-----------------------------------|------------------------------------------
                                                                              

guitar 2
-----------------------------------|------------------------------------------
-----------------------------------|------------------------------------------
-5--5-5--5-5-5-5--7--7-7--7-7-7-7--|-9-\--------------------------------------
-5--5-5--5-5-5-5--7--7-7--7-7-7-7--|-9--x15-----------------------------------
-3--3-3--3-3-3-3--5--5-5--5-5-5-5--|-7-/--------------------------------------
-----------------------------------|------------------------------------------
  


                                                                            
CHORUS ("The Phantom of the Opera is there inside my mind")

both guitars
-----------------------------------|------------------------------------------
-----------------------------------|------------------------------------------
-9-\-------------------------------|-5-\--------------------------------------
-9--x15----------------------------|-5--x15-----------------------------------
-7-/-------------------------------|-3-/--------------------------------------
-----------------------------------|------------------------------------------
        
                                                                      
both guitars
-----------------------------------|------------------------------------------
-----------------------------------|------------------------------------------
-9--9-9--9-9-9-9-9-9-9-9-9-8-7-6---|-5--5-5--5-5-5-5-5-5-5-5-5-6-7-8----------
-9--9-9--9-9-9-9-9-9-9-9-9-8-7-6---|-5--5-5--5-5-5-5-5-5-5-5-5-6-7-8----------
-7--7-7--7-7-7-7-7-7-7-7-7-6-5-4---|-3--3-3--3-3-3-3-3-3-3-3-3-4-5-6----------
-----------------------------------|------------------------------------------
      
                                                                        
both guitars
-----------------------------------|------------------------------------------
-----------------------------------|------------------------------------------
-9--9-9--9-9-9-9-9-9-9-9-9-8-7-6---|-5--5-5--5-5-5-5-5-5-5-5-5-6-7-8----------
-9--9-9--9-9-9-9-9-9-9-9-9-8-7-6---|-5--5-5--5-5-5-5-5-5-5-5-5-6-7-8----------
-7--7-7--7-7-7-7-7-7-7-7-7-6-5-4---|-3--3-3--3-3-3-3-3-3-3-3-3-4-5-6----------
-----------------------------------|------------------------------------------
                                                                              





LYRICS:


(1)
VERSE:
In sleep he sang to me, in dreams he came
That voice which calls to me and speaks my name

PRE CHORUS:
And do I dream again? For now I find

CHORUS:
The Phantom of the Opera is there inside my mind



(2)
VERSE:
Sing once again with me our strange duet
My power over you grows stronger yet

PRE CHORUS:
And though you turn from me to glance behind

CHORUS:
The Phantom of the Opera is there inside your mind



(3)
VERSE:
Those who have seen your face draw back in fear
I am the mask you wear, it's me they hear

PRE CHORUS:
Your spirit and my voice in one combined

CHORUS/OUTRO:
The Phantom of the Opera is there inside my mind

The Phantom of the Opera
The Phantom of the Opera
            
Submit corrections



        Phantom Of The Opera Song lessons Hard to play? Try these video lessons and learn fast Phantom Of The Opera Song lessons
        
↑ Back to top | Tablatures and chords for acoustic guitar and electric guitar, ukulele, drums are parodies/interpretations of the original songs. You may use it for private study, scholarship, research or language learning purposes only