» » »

Maximum The Hormone - What's Up People? Bass

Artists:  A B C D E F G H I J K L M N O P Q R S T U V W X Y Z # 

What's Up People? Bass

(ver. 1) Click to play this song!
Maximum The Hormone
 Rating:
4/5 (4 votes)

 What's Up People? lessons Tabs too difficult? Try these video lessons and learn fast
 
                What's Up, People!? by Maximum the Hormone
Bass tab by J (MtH2112)
Most of this should be right. Though I'm not sure about the end.
This song is played in a whole step down Drop C: F (two fret lower),
C (two fret lower), G (two frets lower), C (four frets lower)


    w   h q e e e x3  w x2
F|----|------------|-----|
C|*-R-|-R-R-------*|*-R-*|
G|*---|-----------*|*---*|
C|----|-----0-3-0--|-----|

    s e e E s e e E x8  e e s e s e e s e s   e e s e s e e e e x3
F|-------------------|----------------------|--------------------|
C|*-----------------*|*-0-0-0-0-0-0-0-0-0-0-|-0-0-0-0-0-3-0-3-2-*|
G|*-----------------*|*---------------------|-------------------*|
C|--0-3-4-2-0-3-4-2--|----------------------|--------------------|

   e e s e s e e s e s   e e s e s e e q    s e e E s e e E x8
F|---------------------|-----------------|-------------------|
C|-0-0-0-0-0-0-0-0-0-0-|-0-0-0-0-0-3-0-R-|*-----------------*|
G|---------------------|-----------------|*-----------------*|
C|---------------------|-----------------|--0-3-4-2-0-3-4-2--|

    e e s e s e e s e s   e e s e s e e e e x3
F|----------------------|--------------------|
C|*-0-0-0-0-0-0-0-0-0-0-|-0-0-0-0-0-3-0-3-2-*|
G|*---------------------|-------------------*|
C|----------------------|--------------------|

   e e s e s e e s e s   e e s e s e e q    s e e E s e e E x8
F|---------------------|-----------------|-------------------|
C|-0-0-0-0-0-0-0-0-0-0-|-0-0-0-0-0-3-0-R-|*-----------------*|
G|---------------------|-----------------|*-----------------*|
C|---------------------|-----------------|--0-3-4-2-0-3-4-2--|

    e e e e e e e e   e e e e e e e e x2
F|------------------|------------------|
C|*-0-0-0-0-3-3-3-3-|-5-5-5-5-6-6-5-3-*|
G|*-----------------|-----------------*|
C|------------------|------------------|

   e e e e e e e e   e e e e e e e e   e e e e e e e e   e e e e e Q
F|-------------5---|-----7---------7-|-------------5---|-----7-------|
C|-0-0-3-0-3-3---3-|-5-5---5-6-6-5---|-0-0-3-0-3-3---3-|-5-5---5-6-R-|
G|-----------------|-----------------|-----------------|-------------|
C|-----------------|-----------------|-----------------|-------------|

    e e e e e e e e   e e e e e e e e x3 e e e e e e e e   e e e e e Q
F|------------------|------------------|-----------------|-------------|
C|*-----------------|-----------------*|-----------------|-------------|
G|*-----------------|---------0-0-3-3-*|-----------------|---------0---|
C|--0-0-0-0-3-3-3-3-|-5-5-5-5----------|-0-0-0-0-3-3-3-3-|-5-5-5-5---R-|

    w x4  e e e e e e e e   e e e e e e e e x2  e e q e e q x8
F|-----|------------------|------------------|---------------|
C|*-R-*|*-------------R---|---------R-------*|*-------------*|
G|*---*|*-----------------|-----------------*|*-------------*|
C|-----|--0-0-3-0-3-0---0-|-3-0-3-0---3-5-6--|--3-4-2-3-4-2--|

   e e s e s e e s e s   e e s e s e e e e x3
F|----------------------|--------------------|
C|*-0-0-0-0-0-0-0-0-0-0-|-0-0-0-0-0-3-0-3-2-*|
G|*---------------------|-------------------*|
C|----------------------|--------------------|

   e e s e s e e s e s   e e s e s e e q    s e e E s e e E x8
F|---------------------|-----------------|-------------------|
C|-0-0-0-0-0-0-0-0-0-0-|-0-0-0-0-0-3-0-R-|*-----------------*|
G|---------------------|-----------------|*-----------------*|
C|---------------------|-----------------|--0-3-4-2-0-3-4-2--|

    e e e e e e e e   e e e e e e e e x2
F|------------------|------------------|
C|*-0-0-0-0-3-3-3-3-|-5-5-5-5-6-6-5-3-*|
G|*-----------------|-----------------*|
C|------------------|------------------|

   e e e e e e e e   e e e e e e e e   e e e e e e e e   e e e e e Q
F|-------------5---|-----7---------7-|-------------5---|-----7-------|
C|-0-0-3-0-3-3---3-|-5-5---5-6-6-5---|-0-0-3-0-3-3---3-|-5-5---5-6-R-|
G|-----------------|-----------------|-----------------|-------------|
C|-----------------|-----------------|-----------------|-------------|

    e e e e e e e e   e e e e e e e e x3 e e e e e e e e   e e e e e e e e
F|------------------|------------------|-----------------|-----------------|
C|*-----------------|-----------------*|-----------------|-----------------|
G|*-----------------|---------0-0-3-3-*|-----------------|---------0-0-3-3-|
C|--0-0-0-0-3-3-3-3-|-5-5-5-5----------|-0-0-0-0-3-3-3-3-|-5-5-5-5---------|

   e e H   h h      Q s s e q e  +e q e e e e e x4
F|-------|-------|--------------|----------------|
C|-----R-|-R-----|*-------------|---------------*|
G|-------|-------|*-------------|---------------*|
C|-0-0---|---10\-|--0-0-0-3-0-3-|---0-0-3-0-5-6--|

    e q e e e e e   e e e e e e e e x3 e q e e e e e   w
F|----------------|------------------|---------------|---|
C|*---R-------R---|-R---R-----------*|---R-------R---|-R-|
G|*---------------|-----------------*|---------------|---|
C|--0---0-3-0---3-|---0---0-3-0-5-6--|-0---0-3-0---3-|---|

    e q e e e e e   e e e e e e e e x3  w x8
F|--------7-----7-|------------------|-----|
C|*---R-------R---|-R---R-----------*|*-R-*|
G|*---------------|-----------------*|*---*|
C|--0---0---0-----|---0---0-3-0-5-6--|-----|
    t   t p t   p     t   t t t t t

    e e e e e e e e   e e e e e e e e x3 e e e e e e e e   e e e e e Q
F|------------------|------------------|-----------------|-------------|
C|*-0-0-0-0-3-3-3-3-|-5-5-5-5-6-6-5-3-*|-0-0-0-0-3-3-3-3-|-5-5-5-5-6-R-|
G|*-----------------|-----------------*|-----------------|-------------|
C|------------------|------------------|-----------------|-------------|

    e e e e e e e e x4 h  h     q  H     +w   +w   w
F|-------------------|--------|--------|----|----|---|
C|*-----------------*|--------|--------|----|----|-R-|
G|*-----------------*|--------|---/12~-|----|----|---|
C|--0-0-3-3-5-6-5-3--|-0-/12~-|-0------|----|----|---|


Key___

w = whole            / = slide up
h = half             \ = slide down
q = quarter          ~ = vibrato
e = eighth           t = tap / slap
s = sixteenth        p = pop / pluck

Capitals = dotted

+ = tie note

R = Rest

      x#
F|-----|
C|*---*| = Repeat measure(s) by the number given above
G|*---*|
C|-----|
            
Submit corrections


        What's Up People? lessons Hard to play? Try these video lessons and learn fast What's Up People? lessons
        
↑ Back to top | Tablatures and chords for acoustic guitar and electric guitar, ukulele, drums are parodies/interpretations of the original songs. You may use it for private study, scholarship, research or language learning purposes only