» » »

Maximum The Hormone - Kuso Breakin' Nou Breakin' Lily Bass

Artists:  A B C D E F G H I J K L M N O P Q R S T U V W X Y Z # 

Kuso Breakin' Nou Breakin' Lily Bass

(ver. 1) Click to play this song!
Maximum The Hormone
 Rating:
4/5 (4 votes)

 Kuso Breakin' Nou Breakin' Lily lessons Tabs too difficult? Try these video lessons and learn fast
 
                Kuso Breakin nou Breakin Lily by Maximum the Hormone
Bass tab by J (MtH2112)
bassline. I hope I wrote this tab well.

Intro
G|-----|-----|-----|------------|
D|-----|-----|-----|------------|
A|-4---|-----|-----|------1-2-3-|
E|-----|-1---|-2---|-4----------|

G|-----------------|-----------------|-------------|--------------|
D|-----------------|-----------------|-------------|--------------|
A|-4-4-4-4-4-4-4-4-|-----------------|-------------|-4-4--4-4-6---|
E|-----------------|-1-1-1-1-1-1-1-1-|-2-2---4-4---|--------------|

Verse 1
G|---------------|---------------|---------------|---------------|
D|---------------|-----------3---|---------------|-----------6---|
A|-4-4--4--4-----|------0--2---3-|-1-1--1--1-1---|---------4---6-|
E|-----------4-3-|-1-1-----------|-------------1-|-4-4--6--------|

G|---------------|---------------|-----------------|-----------------|
D|---------------|-----------3---|-----------------|-----------------|
A|-4-4--4--4-----|------0--2---3-|-----------------|-4-444-4---------|
E|-----------4-3-|-1-1-----------|-2-2---2-4-4---4-|---------4-4-4-4-|

G|--------|--------|--------|--------|--------|--------|--------|------------|
D|--------|--------|--------|--------|--------|--------|--------|------------|
A|-4----4-|--------|--------|--------|-4----4-|--------|--------|------------|
E|--------|-4----4-|-2----2-|-4----4-|--------|-4----4-|-2----2-|-4--xx4-4-4-|
(end of Verse 1)

G|---------------|---------------|---------------|---------------|
D|-----------3---|---------------|---------------|-----------6---|
A|-4-4--4--4---4-|-----------4---|---------------|---------4---6-|
E|---------------|-4-4--4--4---4-|-2-2--2--2-1-2-|-4-4--6--------|

G|---------------|---------------|---------------|-----------------|
D|-----------3---|---------------|---------------|-----------------|
A|-4-4--4--4---4-|-----------4---|---------------|-----------------|
E|---------------|-4-4--4--4---4-|-2-2--2--2-1-2-|-1-1-1-1-1-1-1-1-|

G|---------|-------------|---------|--------------|
D|---------|-------------|---------|----------3---|
A|-1-------|-----4-4-----|-1-------|-----00-2---3-|
E|-----4---|-2-------4-3-|-----4---|-2------------|

G|---------|-------------|-----------------|-----------------|
D|---------|-------------|-----------------|-----------------|
A|-1-------|-----1-1-1---|-1-1-1-1---------|-----------------|
E|-----4---|-2---------1-|---------2-2-2-2-|-4-4-4-4-4---4---|
I don't exactly understand the two lines above. The bass is really hard to hear
on this part, so this was the best I could do.

G|---------------|---------------|---------------|---------------|
D|---------------|-----------3---|---------------|-----------6---|
A|-4-4--4--4-----|------0--2---3-|-1-1--1--1-1---|---------4---6-|
E|-----------4-3-|-1-1-----------|-------------1-|-4-4--6--------|

G|---------------|---------------|-----------------|-----------------|
D|---------------|-----------3---|-----------------|-----------------|
A|-4-4--4--4-----|------0--2---3-|-----------------|-4-444-4-4-------|
E|-----------4-3-|-1-1-----------|-2-2---2-4-4---4-|-----------------|

Verse 2
G|---------------|---------------|---------------|---------------|
D|-----------3---|---------------|---------------|-----------6---|
A|-4-4--4--4---4-|-----------4---|---------------|---------4---6-|
E|---------------|-4-4--4--4---4-|-2-2--2--2-1-2-|-4-4--6--------|

G|---------------|---------------|---------------|---------------|
D|-----------3---|---------------|---------------|---------------|
A|-4-4--4--4---4-|-----------4---|---------------|---------------|
E|---------------|-4-4--4--4---4-|-2-2--2--2-1-2-|-4-4--4--4-4-4-|

Verse 3
G|-----------------|-----------------|-----------------|-----------------|
D|-----------------|-----------------|-----------------|-----------------|
A|-----------------|-----------------|-----------------|-----------------|
E|-1-0-1-2-1-0-1-2-|-1-0-1-2-1-x-x-x-|-1-0-1-2-1-0-1-2-|-1-0-1-2-1-x-x-x-|

G|-----------------|-----------------|-----------------|-----------------|
D|-----------------|-----------------|-----------------|-----------------|
A|-----------------|-----------------|-----------------|-----------------|
E|-1-0-1-2-1-0-1-2-|-1-0-1-2-1-x-x-x-|-1-0-1-2-1-0-1-2-|-1-0-1-2-6-4-4-4-|

Repeat Intro, Verse 1, Verse 2, then Verse 3

G|-----|-----|-----|------------|
D|-----|-----|-----|------------|
A|-4---|-----|-----|------1-2-3-|
E|-----|-1---|-2---|-4----------|

G|-----------------|-----------------|-----------------|-------------------|
D|-----------------|-----------------|-----------------|-------------------|
A|-4-4-4-4-4-4-4-4-|-----------------|-----------------|-------------------|
E|-----------------|-1-1-1-1-1-1-1-1-|-2-2-2-2-2-2-2-2-|-4-4-4-4-4-4-4-4-4-|

G|-------------|-------------|-------------|-----------------|
D|-------------|-------------|-------------|-----------------|
A|-4-4---3-3---|-1-1---------|-------------|-4---4---4-4-4-4-|
E|-------------|-------4-4---|-2-2---4-4---|-----------------|

G|-------------|-------------|-------------|---------------|
D|-------------|-------------|-------------|---------------|
A|-4-4---3-3---|-1-1---------|-------------|-4-4---4-4-4-4-|
E|-------------|-------4-4---|-2-2---4-4---|---------------|

G|----------------|---------------|---------------|-----------------|
D|*---------------|---------------|---------------|----------------*|
A|*-4-4--4-3-3--3-|-1-1--1--------|---------------|-4-4--4-4-4-4-4-*|
E|----------------|--------4-4--4-|-2-2--2-4-4--4-|-----------------|
                                                                 x2

G|-----------------|-----------------|-----------------|-----------------|
D|-----------------|-----------------|-----------------|-----------------|
A|-----------------|-----------------|-4-4-4-4-4-4-4-4-|-4-4-4-4-4-4-4-4-|
E|-2-2-2-2-2-2-2-2-|-4-4-4-4-4-4-4-4-|-----------------|-----------------|

G|-----------------|-----------------|-----------------|-----------------|
D|-----------------|-----------------|-----------------|-----------------|
A|-----------------|-----------------|-4-4-4-4-3-3-3-3-|-1-1-1-1---------|
E|-2-2-2-2-2-2-2-2-|-4-4-4-4-4-4-4-4-|-----------------|---------4-4-4-4-|

G|-----------------|-----------------|--------------|--------------|
D|-----------------|-----------------|---6------5---|---4------3---|
A|-----------------|-----------------|-4---4--4---4-|-4---4--4---4-|
E|-2-------2---2---|-4-------4---4---|--------------|--------------|

G|---------|---------|
D|---------|---------|
A|---------|---------|
E|-2-------|-4-------|

G|------|
D|*----*|
A|*----*|
E|------| = Repeat measure by however much is numbered below the measure.
            
Submit corrections


        Kuso Breakin' Nou Breakin' Lily lessons Hard to play? Try these video lessons and learn fast Kuso Breakin' Nou Breakin' Lily lessons
        
↑ Back to top | Tablatures and chords for acoustic guitar and electric guitar, ukulele, drums are parodies/interpretations of the original songs. You may use it for private study, scholarship, research or language learning purposes only