» » »

Maximum The Hormone - Patokaa Moya Su Tabs

Artists:  A B C D E F G H I J K L M N O P Q R S T U V W X Y Z # 

Patokaa Moya Su Tabs

(ver. 1) Click to play this song!
Maximum The Hormone
 Rating:
4.2/5 (5 votes)

 Patokaa Moya Su lessons Tabs too difficult? Try these video lessons and learn fast
 
                A song from my favorite band.


Guitar 1
e|-------------------------------------------------|
B|-------------------------------------------------|
G|-------------------------9--9--9--9--11-11-11-11-|
D|-9--9--9--9--11-11-11-11-9--9--9--9--11-11-11-11-|
A|-9--9--9--9--11-11-11-11-7--7--7--7--9--9--9--9--|
E|-7--7--7--7--9--9--9--9--------------------------|
   .  .        .  .        .  .        .  .
Guitar 2
e|------------------------------------------------|
B|------------------------------------------------|
G|------------------------------------------------|
D|------------------------------------------------|
A|------------------------------------------------|
E|------------------------------------------------|

Guitar 1
e|----------------------------------------|
B|----------------------------------------|
G|-------------------------9--9--9--9--11-|
D|-9--9--9--9--11-11-11-11-9--9--9--9--11-|
A|-9--9--9--9--11-11-11-11-7--7--7--7--9--|
E|-7--7--7--7--9--9--9--9-----------------|
   .  .        .  .        .  .
Guitar 2
e|---------------------------------------|
B|---------------------------------------|
G|---------------------------------------|
D|---------------------------------------|
A|---------------------------------------|
E|---------------------------------------|


Guitar 1
e|---------------------------------------------------------|
B|---------------------------------------------------------|
G|---------------------------------9--9--9--9--11-11-11-11-|
D|---------9--9--9--9--11-11-11-11-9--9--9--9--11-11-11-11-|
A|---------9--9--9--9--11-11-11-11-7--7--7--7--9--9--9--9--|
E|---------7--7--7--7--9--9--9--9--------------------------|

Guitar 2
e|---------11----14----------11----------------------------|
B|---12-14-------------14----------12\---------------12-12-|
G|---------------------------------------------------------|
D|---------------------------------------------------------|
A|---------------------------------------------------------|
E|---------------------------------------------------------|


Guitar 1
e|-------------------------------------------------|
B|-------------------------------------------------|
G|-------------------------9--9--9--9--11-11-11-11-|
D|-9--9--9--9--11-11-11-11-9--9--9--9--11-11-11-11-|
A|-9--9--9--9--11-11-11-11-7--7--7--7--9--9--9--9--|
E|-7--7--7--7--9--9--9--9--------------------------|

Guitar 2
e|--------------------------------------------------|
B|-12----12----14----12-14-14b16-------br----12--14-|
G|----------------------------------------11--------|
D|--------------------------------------------------|
A|--------------------------------------------------|
E|--------------------------------------------------|

Guitar 1
e|------------------------------------------------|
B|------------------------------------------------|
G|------------------------9--9--9--9--11-11-11-11-|
D|9--9--9--9--11-11-11-11-9--9--9--9--11-11-11-11-|
A|9--9--9--9--11-11-11-11-7--7--7--7--9--9--9--9--|
E|7--7--7--7--9--9--9--9--------------------------|

Guitar 2
e|11----14----------11----------------------14/16-|
B|------------14----------12----------------------|
G|------------------------------------------------|
D|------------------------------------------------|
A|------------------------------------------------|
E|------------------------------------------------|

Guitar 1
e|-------------------------------------|
B|-------------------------------------|
G|-----------11------------------------|
D|9----------11------------9--9--9--9--|
A|9----------9-------------9--9--9--9--|
E|7------------------------7--7--7--7--|

Guitar 2
e|14-11--------------------------------|
B|------12---14----14b16br-12-12-12-12-|
G|-------------------------------------|
D|-------------------------------------|
A|-------------------------------------|
E|-------------------------------------|


Guitar 1
e|-------------------------------------------------|
B|-------------------------------------------------|
G|-------------11-11-11-11-9--9--9--9--11-11-11-11-|
D|-9--9--9--9--11-11-11-11-9--9--9--9--11-11-11-11-|
A|-9--9--9--9--9--9--9--9--7--7--7--7--9--9--9--9--|
E|-7--7--7--7--------------------------------------|
   .  .        .  .        .  .        .  .
Guitar 2
e|------------------------------------------------|
B|------------------------------------------------|
G|------------------------------------------------|
D|------------------------------------------------|
A|------------------------------------------------|
E|------------------------------------------------|

Guitar 1
e|-------------------------------------------------|
B|-------------------------------------------------|
G|-------------11-11-11-11-9--9--9--9--11-11-11-11-|
D|-9--9--9--9--11-11-11-11-9--9--9--9--11-11-11-11-|
A|-9--9--9--9--9--9--9--9--7--7--7--7--9--9--9--9--|
E|-7--7--7--7--------------------------------------|
   .  .        .  .        .  .        .  .
Guitar 2
e|------------------------------------------------|
B|------------------------------------------------|
G|------------------------------------------------|
D|------------------------------------------------|
A|------------------------------------------------|
E|------------------------------------------------|


Guitar 1
e|-------------------------------------------------|
B|-------------------------------------------------|
G|-------------11-11-11-11-9--9--9--9--11-11-11-11-|
D|-9--9--9--9--11-11-11-11-9--9--9--9--11-11-11-11-|
A|-9--9--9--9--9--9--9--9--7--7--7--7--9--9--9--9--|
E|-7--7--7--7--------------------------------------|
   .  .        .  .        .  .        .  .
Guitar 2
e|------------------------------------------------|
B|------------------------------------------------|
G|------------------------------------------------|
D|------------------------------------------------|
A|------------------------------------------------|
E|------------------------------------------------|

Guitar 1
e|------------------------------------------------|
B|------------------------------------------------|
G|------------11----------------------------------|
D|9-----------11-----------9--9--9--9--9--9--9--9-|
A|9-----------9------------9--9--9--9--9--9--9--9-|
E|7------------------------7--7--7--7--7--7--7--7-|
                           .
Guitar 2
e|----------------------------------------|
B|----------------------------------------|
G|----------------------------------------|
D|----------------------------------------|
A|----------------------------------------|
E|----------------------------------------|

Guitar 1
e|-------------------------------------------------|
B|-------------------------------------------------|
G|-------------11-11-11-11-9--9--9--9--11-11-11-11-|
D|-9--9--9--9--11-11-11-11-9--9--9--9--11-11-11-11-|
A|-9--9--9--9--9--9--9--9--7--7--7--7--9--9--9--9--|
E|-7--7--7--7--------------------------------------|

Guitar 2
e|------------------------------------------------|
B|------------------------------------------------|
G|------------------------------------------------|
D|------------------------------------------------|
A|------------------------------------------------|
E|------------------------------------------------|

Guitar 1
e|-------------------------------------------------|
B|-------------------------------------------------|
G|-------------11-11-11-11-9--9--9--9--11-11-11-11-|
D|-9--9--9--9--11-11-11-11-9--9--9--9--11-11-11-11-|
A|-9--9--9--9--9--9--9--9--7--7--7--7--9--9--9--9--|
E|-7--7--7--7--------------------------------------|

Guitar 2
e|------------------------------------------------|
B|------------------------------------------------|
G|------------------------------------------------|
D|------------------------------------------------|
A|------------------------------------------------|
E|------------------------------------------------|

Guitar 1
e|-------------------------------------------------|
B|-------------------------------------------------|
G|-------------11-11-11-11-9--9--9--9--11-11-11-11-|
D|-9--9--9--9--11-11-11-11-9--9--9--9--11-11-11-11-|
A|-9--9--9--9--9--9--9--9--7--7--7--7--9--9--9--9--|
E|-7--7--7--7--------------------------------------|

Guitar 2
e|------------------------------------------------|
B|------------------------------------------------|
G|------------------------------------------------|
D|------------------------------------------------|
A|------------------------------------------------|
E|------------------------------------------------|

Guitar 1
e|----------------------------------------|
B|----------------------------------------|
G|------------11--------------------------|
D|9-----------11-----------9--9--9--9--9--|
A|9-----------9------------9--9--9--9--9--|
E|7------------------------7--7--7--7--7--|
                           .
Guitar 2
e|----------------------------------------|
B|----------------------------------------|
G|----------------------------------------|
D|----------------------------------------|
A|----------------------------------------|
E|----------------------------------------|

Guitar 1
e|------------------------------------------|
B|------------------------------------------|
G|------------------------11----------------|
D|------------------------11-9--9--9--9--9--|
A|------------------------9--9--9--9--9--9--|
E|---------------------------7--7--7--7--7--|
                             .
Guitar 2
e|------------------------------------------|
B|------------------------------------------|
G|------------------------------------------|
D|------------------------------------------|
A|------------------------------------------|
E|------------------------------------------|
            
Submit corrections


        Patokaa Moya Su lessons Hard to play? Try these video lessons and learn fast Patokaa Moya Su lessons
        
↑ Back to top | Tablatures and chords for acoustic guitar and electric guitar, ukulele, drums are parodies/interpretations of the original songs. You may use it for private study, scholarship, research or language learning purposes only