Home » M » Maximum The Hormone »

Maximum The Hormone - Bouriki Tabs

Artists:  A B C D E F G H I J K L M N O P Q R S T U V W X Y Z # 

Bouriki Tabs

(ver. 1) Click to play this song!
Maximum The Hormone
[Intro]

D|---------------------------|---------------------------|
A|---------------------------|---------------------------|
F|---------------------------|---------------------------|
C|-5-5-5-5-5--5--5--5--5-6-6-|-5-5-5-5-5--5--5--5--5-8-8-|
G|-5-5-5-5-5--5--5--5--5-6-6-|-5-5-5-5-5--5--5--5--5-8-8-|
C|-5-5-5-5-5--5--5--5--5-6-6-|-5-5-5-5-5--5--5--5--5-8-8-|

D|---------------------------|---------------------------|
A|---------------------------|---------------------------|
F|---------------------------|---------------------------|
C|-5-5-5-5-5--5--5--5--5-6-6-|-5-5-5-5-5--5--5-5---------|
G|-5-5-5-5-5--5--5--5--5-6-6-|-5-5-5-5-5--5--5-5---------|
C|-5-5-5-5-5--5--5--5--5-6-6-|-5-5-5-5-5--5--5-5---------|

D|---------------------------|
A|---------------------------|
F|---------------------------|
C|---12\---------------------|
G|---12\---------------------|
C|---12\---------------------|


[Verse]

D|---------------|
A|---------------|
F|---------------|
C|-5-x-x-x-x-6-5-| x16
G|-5-x-x-x-x-4-5-|
C|-5-x-x-x-x---5-|


[Intro]

D|---------------------------|---------------------------|
A|---------------------------|---------------------------|
F|---------------------------|---------------------------|
C|-5-5-5-5-5--5--5--5--5-6-6-|-5-5-5-5-5--5--5--5--5-8-8-|
G|-5-5-5-5-5--5--5--5--5-6-6-|-5-5-5-5-5--5--5--5--5-8-8-|
C|-5-5-5-5-5--5--5--5--5-6-6-|-5-5-5-5-5--5--5--5--5-8-8-|

D|---------------------------|---------------------------|
A|---------------------------|---------------------------|
F|---------------------------|---------------------------|
C|-5-5-5-5-5--5--5--5--5-6-6-|-5-5-5-5-5--5--5-5---------|
G|-5-5-5-5-5--5--5--5--5-6-6-|-5-5-5-5-5--5--5-5---------|
C|-5-5-5-5-5--5--5--5--5-6-6-|-5-5-5-5-5--5--5-5---------|

D|---------------------------|
A|---------------------------|
F|---------------------------|
C|---12\---------------------|
G|---12\---------------------|
C|---12\---------------------|


[Verse (Part 2)]

D|---------------|
A|---------------|
F|---------------|
C|-5-x-x-x-x-6-5-| x16
G|-5-x-x-x-x-4-5-|
C|-5-x-x-x-x---5-|

D----------|
A----------|
F----------|
C----------| x15
G-------4--|
C-5--8-----|
P.M--------|

D|---------------|
A|---------------|
F|---------------|
C|---------------|
G|-------4-------|
C|-5--8-----5--5-|


[Break]

D|-----------------|-----------------|-----------------|-------------------|
A|-----------------|-----------------|-----------------|-------------------|
F|-----------------|-----------------|-----------------|-------------<5>---|
C|-----------------|-----------------|-----------------|-------------------| x2
G|-----4-----4---4-|-----4-----4---4-|-----4-----4---4-|-----4-----4-------|
C|-5-8---5-8---5---|-5-8---5-8---5---|-5-8---5-8---5---|-5-8---5-8---------|
P.M.-   ---   -     ---   ---   -     ---   ---   -     ---   ---   

D|C-----------------|-----------------|-----------------|-------------------|
A|-----------------|-----------------|-----------------|-------------------|
F|-----------------|-----------------|-----------------|-------------------|
C|-----------------|-----------------|-----------------|-------------------|
G|-----4-----4---4-|-----4-----4---4-|-----4-----4---4-|-----4----4-5--5---|
C|-5-8---5-8---5---|-5-8---5-8---5---|-5-8---5-8---5---|-5-8---5-8--5--5---|
P.M.-   ---   -     ---   ---   -     ---   ---   -     ---   ---  -

D|-----------------|-----------------|
A|-----------------|-----------------|
F|-----------------|-----------------|
C|-5---------------|-(5)-------------|
G|-5---------------|-(5)-------------|
C|-5---------------|-(5)-------------|


[Outro]

D|-15~----15----15-17-15-|-17b-17b-17------------|
A|-----15----15----------|-----------------------|
F|-----------------------|-----------------------|
C|-----------------------|-----------------------| x2
G|-----------------------|-----------------------| 
C|-----------------------|-----------------------|
            
Submit corrections

↑ Back to top | Tablatures and chords for acoustic guitar and electric guitar, ukulele, drums are parodies/interpretations of the original songs. You may use it for private study, scholarship, research or language learning purposes only