» » »

Maximum The Hormone - Alien Tabs

Artists:  A B C D E F G H I J K L M N O P Q R S T U V W X Y Z # 

Alien Tabs

(ver. 1) Click to play this song!
Maximum The Hormone
 Rating:
2.9/5 (24 votes)

 Alien  lessons Tabs too difficult? Try these video lessons and learn fast
 
                Heavy Part (Distorted):

Riff A (0:13 - 0:23)

E--6-3-0--|
B---------|
G---------|
D---------|
A---------|
E---------|

Riff B (0:23 - 0:29)

E-------------------|
B-------------------|
G--4-4-4-4-4-4-6-6--|
D--2-2-2-2-2-2-5-5--|
A--------------4-4--|
E-------------------|

Repeat Riff A (0:29 - 0:37)

Repeat Riff B (0:37 - 0:43)

Riff C (0:43 - 0:50)

E---------------|
B---------------|
G----------6----|
D----------5-X6-|
A----------4----|
E--6p0-X12------|

Riff D (0:50 - 0:57)

E---------------|
B---------------|
G----------6----|
D----------5-X6-|
A----------4----|
E--6p0-X12------|
   P.M----|

Riff E (0:57 - 1:09)

E--------------------|
B--------------------|
G--------------------|
D--------------------|
A--2---3---2---3-X7--|
E--0---1---0---1-----|
   P.M-------------|
Riff F (1:09 - 1:13)

E----------------------|
B----------------------|
G----------------------|
D----------------------|
A--2---3---2---3-3-3-3-|
E--0---1---0---1-1-1-1-|
   P.M------|

Repeat Riff A (1:13 - 1:26)

Repeat Riff B (1:26 - 1:33)

Riff G (1:33 - 1:40)

E----------------------------------------------|
B----------------------------------------------|
G----------------------------------------------|
D----------------------------------------------|
A--2---2---8--5--2--2-2-2--2--2-2--2--6--5--2--|
E--0---0---6--3--0--0-0-0--0--0-0--0--8--3--0--|

Riff H (1:40 - 1:47)

E---------------------------|
B---------------------------|
G---------------------------|
D---------------------------|
A--2-X-X-X-2-X-X-X-8--5--2--|
E--0-X-X-X-0-X-X-X-6--3--0--|

Riff I (1:47 - 1:57)

E---------------|
B---------------|
G---------------|
D---------------|
A---------------|
E--6-3-5-5-0-6--|
     P.M------|

Riff J (1:57 - 2:04)

E----------------------------------|
B----------------------------------|
G----------------------------------|
D----------------------------------|
A--8-5-7----8-5-7----8-5-7----8-5--|
E--6-3-5-0--6-3-5-0--6-3-5-0--6-3--|

Riff K (2:04 - 2:14)

E---------------------------------|
B---------------------------------|
G---------------------------------|
D---------------------------------|
A------------------------------2--|
E--6-3-5-5-0-6-X11---6-3-5-5-0-0--|
   P.M------------------------|

Repeat Riff B (2:15 - 2:21)

Riff L (2:24 - 2:27)

E-------------------------------------|
B-------------------------------------|
G--6-6-6--9-9-9----6------------------|
D--5-5-5--8-8-8-X3-5------------------|
A--4-4-4--7-7-7----4-4h5 4h5 4h5 4h5--|
E-------------------------------------|

Riff M (2:27 - 2:31)

E-------------------------------------|
B-------------------------------------|
G--6-6-6--9-9-9----6------------------|
D--5-5-5--8-8-8-X3-5------------------|
A--4-4-4--7-7-7----4-7h8-7h8-7h8-7h8--|
E-------------------------------------|

Repeat Riff L (2:31 - 2:34) 

Riff N (2:34 - 2:44)

E----------------------------------------------|
B----------------------------------------------|
G--6-6-6--9-9-9----6---------------------------|
D--5-5-5--8-8-8-X3-5------------------------4--|
A--4-4-4--7-7-7----4-4h5-4h5-4h5-4h5-X5-6-7----|
E----------------------------------------------|

Calm Part (Clean):

Riff A (2:44 - 3:01)

E------------------------------|
B--9--7-7--5-------------9-----|
G--9--8-8--6-----6----8--9--8--|
D--9--9-9--6-----7----9--9--9--|
A--7--6-6--4---7-7--9-9--7--9--|
E-------------5--5-7--7-----7--|

Riff B (3:03 - 3:18)

E--------|
B--9-7---|
G---9-9--|
D--------|
A--------|
E--------|

Riff C (3:18 - 3:30)

E----------------9--------|
B--12-9--------9--9-------|
G-------9-11-9------11-9--|
D-------------------------|
A-------------------------|
E-------------------------|

Riff D (3:30 - 3:33)

E---------|
B---------|
G---------|
D--7-9----|
A--7-9----|
E------0--|

Riff E (Turn on distortion) (3:48 - 3:56)

E------------------------|
B------------------------|
G------------------------|
D------------------------|
A------------------------|
E--12-11--9-7--5-4-2--7--|

Riff F (3:56 - 4:20)

E-------------------------------------------------------------------------------|
B-------------------------------------------------------------------------------|
G-------------------------------------------------------------------------------|
D-------------------------------------------------------------------------------|
A--14-14-14-14-14-14-14-14-11-11-11-11-9-9-9-9-7-7-7-7-6-6-6-6-4-4-4-4-9-9-9-9--|
E--12-12-12-12-11-11-11-11-9--9--9--9--7-7-7-7-5-5-5-5-4-4-4-4-2-2-2-2-7-7-7-7--|

Riff G (4:21 - 4:45)

E-------------------------------------------------------------------|
B-------------------------------------------------------------------|
G-------------------------------------------------------------------|
D-------------------------------------------------------------------|
A--11-11-11-11-11-11-11-11-11-11-11-11-11-7-7-7-7-7-7-9-9-9-9-9--2--|
E--9--9--9--9--9--9--8--8--8--8--8--8--8--5-5-5-5-5-5-7-7-7-7-7--0--|
            
Submit corrections


        Alien  lessons Hard to play? Try these video lessons and learn fast Alien  lessons
        
↑ Back to top | Tablatures and chords for acoustic guitar and electric guitar, ukulele, drums are parodies/interpretations of the original songs. You may use it for private study, scholarship, research or language learning purposes only